  0
SECTION
  2
HEADER
  9
$ACADVER
  1
AC1027
  9
$ACADMAINTVER
 70
     8
  9
$DWGCODEPAGE
  3
ANSI_1252
  9
$REQUIREDVERSIONS
160
                 0
  9
$INSBASE
 10
0.0
 20
0.0
 30
0.0
  9
$EXTMIN
 10
1.000000000000000E+20
 20
1.000000000000000E+20
 30
1.000000000000000E+20
  9
$EXTMAX
 10
-1.000000000000000E+20
 20
-1.000000000000000E+20
 30
-1.000000000000000E+20
  9
$LIMMIN
 10
0.0
 20
0.0
  9
$LIMMAX
 10
508.0
 20
508.0
  9
$ORTHOMODE
 70
     0
  9
$REGENMODE
 70
     1
  9
$FILLMODE
 70
     1
  9
$QTEXTMODE
 70
     0
  9
$MIRRTEXT
 70
     1
  9
$LTSCALE
 40
1.0
  9
$ATTMODE
 70
     1
  9
$TEXTSIZE
 40
2.5
  9
$TRACEWID
 40
1.0
  9
$TEXTSTYLE
  7
Standard
  9
$CLAYER
  8
0
  9
$CELTYPE
  6
ByLayer
  9
$CECOLOR
 62
   256
  9
$CELTSCALE
 40
1.0
  9
$DISPSILH
 70
     0
  9
$DIMSCALE
 40
1.0
  9
$DIMASZ
 40
2.5
  9
$DIMEXO
 40
0.625
  9
$DIMDLI
 40
3.75
  9
$DIMRND
 40
0.0
  9
$DIMDLE
 40
0.0
  9
$DIMEXE
 40
1.25
  9
$DIMTP
 40
0.0
  9
$DIMTM
 40
0.0
  9
$DIMTXT
 40
2.5
  9
$DIMCEN
 40
2.5
  9
$DIMTSZ
 40
0.0
  9
$DIMTOL
 70
     0
  9
$DIMLIM
 70
     0
  9
$DIMTIH
 70
     0
  9
$DIMTOH
 70
     0
  9
$DIMSE1
 70
     0
  9
$DIMSE2
 70
     0
  9
$DIMTAD
 70
     1
  9
$DIMZIN
 70
     8
  9
$DIMBLK
  1

  9
$DIMASO
 70
     1
  9
$DIMSHO
 70
     1
  9
$DIMPOST
  1

  9
$DIMAPOST
  1

  9
$DIMALT
 70
     0
  9
$DIMALTD
 70
     3
  9
$DIMALTF
 40
0.03937007874016
  9
$DIMLFAC
 40
1.0
  9
$DIMTOFL
 70
     1
  9
$DIMTVP
 40
0.0
  9
$DIMTIX
 70
     0
  9
$DIMSOXD
 70
     0
  9
$DIMSAH
 70
     0
  9
$DIMBLK1
  1

  9
$DIMBLK2
  1

  9
$DIMSTYLE
  2
ISO-25
  9
$DIMCLRD
 70
     0
  9
$DIMCLRE
 70
     0
  9
$DIMCLRT
 70
     0
  9
$DIMTFAC
 40
1.0
  9
$DIMGAP
 40
0.625
  9
$DIMJUST
 70
     0
  9
$DIMSD1
 70
     0
  9
$DIMSD2
 70
     0
  9
$DIMTOLJ
 70
     0
  9
$DIMTZIN
 70
     8
  9
$DIMALTZ
 70
     0
  9
$DIMALTTZ
 70
     0
  9
$DIMUPT
 70
     0
  9
$DIMDEC
 70
     2
  9
$DIMTDEC
 70
     2
  9
$DIMALTU
 70
     2
  9
$DIMALTTD
 70
     3
  9
$DIMTXSTY
  7
Standard
  9
$DIMAUNIT
 70
     0
  9
$DIMADEC
 70
     0
  9
$DIMALTRND
 40
0.0
  9
$DIMAZIN
 70
     0
  9
$DIMDSEP
 70
    44
  9
$DIMATFIT
 70
     3
  9
$DIMFRAC
 70
     0
  9
$DIMLDRBLK
  1

  9
$DIMLUNIT
 70
     2
  9
$DIMLWD
 70
    -2
  9
$DIMLWE
 70
    -2
  9
$DIMTMOVE
 70
     0
  9
$DIMFXL
 40
1.0
  9
$DIMFXLON
 70
     0
  9
$DIMJOGANG
 40
0.7853981633974483
  9
$DIMTFILL
 70
     0
  9
$DIMTFILLCLR
 70
     0
  9
$DIMARCSYM
 70
     0
  9
$DIMLTYPE
  6

  9
$DIMLTEX1
  6

  9
$DIMLTEX2
  6

  9
$DIMTXTDIRECTION
 70
     0
  9
$LUNITS
 70
     2
  9
$LUPREC
 70
     4
  9
$SKETCHINC
 40
1.0
  9
$FILLETRAD
 40
10.0
  9
$AUNITS
 70
     0
  9
$AUPREC
 70
     0
  9
$MENU
  1
.
  9
$ELEVATION
 40
0.0
  9
$PELEVATION
 40
0.0
  9
$THICKNESS
 40
0.0
  9
$LIMCHECK
 70
     0
  9
$CHAMFERA
 40
0.0
  9
$CHAMFERB
 40
0.0
  9
$CHAMFERC
 40
0.0
  9
$CHAMFERD
 40
0.0
  9
$SKPOLY
 70
     0
  9
$TDCREATE
 40
2457641.366336597
  9
$TDUCREATE
 40
2457641.283003264
  9
$TDUPDATE
 40
2457641.366338333
  9
$TDUUPDATE
 40
2457641.283005
  9
$TDINDWG
 40
0.0000000116
  9
$TDUSRTIMER
 40
0.0000000116
  9
$USRTIMER
 70
     1
  9
$ANGBASE
 50
0.0
  9
$ANGDIR
 70
     0
  9
$PDMODE
 70
     0
  9
$PDSIZE
 40
0.0
  9
$PLINEWID
 40
0.0
  9
$SPLFRAME
 70
     0
  9
$SPLINETYPE
 70
     6
  9
$SPLINESEGS
 70
     8
  9
$HANDSEED
  5
155
  9
$SURFTAB1
 70
     6
  9
$SURFTAB2
 70
     6
  9
$SURFTYPE
 70
     6
  9
$SURFU
 70
     6
  9
$SURFV
 70
     6
  9
$UCSBASE
  2

  9
$UCSNAME
  2

  9
$UCSORG
 10
0.0
 20
0.0
 30
0.0
  9
$UCSXDIR
 10
1.0
 20
0.0
 30
0.0
  9
$UCSYDIR
 10
0.0
 20
1.0
 30
0.0
  9
$UCSORTHOREF
  2

  9
$UCSORTHOVIEW
 70
     0
  9
$UCSORGTOP
 10
0.0
 20
0.0
 30
0.0
  9
$UCSORGBOTTOM
 10
0.0
 20
0.0
 30
0.0
  9
$UCSORGLEFT
 10
0.0
 20
0.0
 30
0.0
  9
$UCSORGRIGHT
 10
0.0
 20
0.0
 30
0.0
  9
$UCSORGFRONT
 10
0.0
 20
0.0
 30
0.0
  9
$UCSORGBACK
 10
0.0
 20
0.0
 30
0.0
  9
$PUCSBASE
  2

  9
$PUCSNAME
  2

  9
$PUCSORG
 10
0.0
 20
0.0
 30
0.0
  9
$PUCSXDIR
 10
1.0
 20
0.0
 30
0.0
  9
$PUCSYDIR
 10
0.0
 20
1.0
 30
0.0
  9
$PUCSORTHOREF
  2

  9
$PUCSORTHOVIEW
 70
     0
  9
$PUCSORGTOP
 10
0.0
 20
0.0
 30
0.0
  9
$PUCSORGBOTTOM
 10
0.0
 20
0.0
 30
0.0
  9
$PUCSORGLEFT
 10
0.0
 20
0.0
 30
0.0
  9
$PUCSORGRIGHT
 10
0.0
 20
0.0
 30
0.0
  9
$PUCSORGFRONT
 10
0.0
 20
0.0
 30
0.0
  9
$PUCSORGBACK
 10
0.0
 20
0.0
 30
0.0
  9
$USERI1
 70
     0
  9
$USERI2
 70
     0
  9
$USERI3
 70
     0
  9
$USERI4
 70
     0
  9
$USERI5
 70
     0
  9
$USERR1
 40
0.0
  9
$USERR2
 40
0.0
  9
$USERR3
 40
0.0
  9
$USERR4
 40
0.0
  9
$USERR5
 40
0.0
  9
$WORLDVIEW
 70
     1
  9
$SHADEDGE
 70
     3
  9
$SHADEDIF
 70
    70
  9
$TILEMODE
 70
     1
  9
$MAXACTVP
 70
    64
  9
$PINSBASE
 10
0.0
 20
0.0
 30
0.0
  9
$PLIMCHECK
 70
     0
  9
$PEXTMIN
 10
1.000000000000000E+20
 20
1.000000000000000E+20
 30
1.000000000000000E+20
  9
$PEXTMAX
 10
-1.000000000000000E+20
 20
-1.000000000000000E+20
 30
-1.000000000000000E+20
  9
$PLIMMIN
 10
0.0
 20
0.0
  9
$PLIMMAX
 10
420.0
 20
297.0
  9
$UNITMODE
 70
     0
  9
$VISRETAIN
 70
     1
  9
$PLINEGEN
 70
     0
  9
$PSLTSCALE
 70
     1
  9
$TREEDEPTH
 70
  3020
  9
$CMLSTYLE
  2
Standard
  9
$CMLJUST
 70
     0
  9
$CMLSCALE
 40
20.0
  9
$PROXYGRAPHICS
 70
     1
  9
$MEASUREMENT
 70
     1
  9
$CELWEIGHT
370
    -1
  9
$ENDCAPS
280
     0
  9
$JOINSTYLE
280
     0
  9
$LWDISPLAY
290
     0
  9
$INSUNITS
 70
     4
  9
$HYPERLINKBASE
  1

  9
$STYLESHEET
  1

  9
$XEDIT
290
     1
  9
$CEPSNTYPE
380
     0
  9
$PSTYLEMODE
290
     1
  9
$FINGERPRINTGUID
  2
{25A2270E-05C9-4131-B5C2-4C4224034EDB}
  9
$VERSIONGUID
  2
{FAEB1C32-E019-11D5-929B-00C0DF256EC4}
  9
$EXTNAMES
290
     1
  9
$PSVPSCALE
 40
0.0
  9
$OLESTARTUP
290
     0
  9
$SORTENTS
280
   127
  9
$INDEXCTL
280
     0
  9
$HIDETEXT
280
     1
  9
$XCLIPFRAME
280
     2
  9
$HALOGAP
280
     0
  9
$OBSCOLOR
 70
   257
  9
$OBSLTYPE
280
     0
  9
$INTERSECTIONDISPLAY
280
     0
  9
$INTERSECTIONCOLOR
 70
   257
  9
$DIMASSOC
280
     2
  9
$PROJECTNAME
  1

  9
$CAMERADISPLAY
290
     0
  9
$LENSLENGTH
 40
50.0
  9
$CAMERAHEIGHT
 40
0.0
  9
$STEPSPERSEC
 40
2.0
  9
$STEPSIZE
 40
6.0
  9
$3DDWFPREC
 40
2.0
  9
$PSOLWIDTH
 40
5.0
  9
$PSOLHEIGHT
 40
80.0
  9
$LOFTANG1
 40
1.570796326794897
  9
$LOFTANG2
 40
1.570796326794897
  9
$LOFTMAG1
 40
0.0
  9
$LOFTMAG2
 40
0.0
  9
$LOFTPARAM
 70
     7
  9
$LOFTNORMALS
280
     1
  9
$LATITUDE
 40
37.795
  9
$LONGITUDE
 40
-122.394
  9
$NORTHDIRECTION
 40
0.0
  9
$TIMEZONE
 70
 -8000
  9
$LIGHTGLYPHDISPLAY
280
     1
  9
$TILEMODELIGHTSYNCH
280
     1
  9
$CMATERIAL
347
44
  9
$SOLIDHIST
280
     1
  9
$SHOWHIST
280
     1
  9
$DWFFRAME
280
     2
  9
$DGNFRAME
280
     2
  9
$REALWORLDSCALE
290
     1
  9
$INTERFERECOLOR
 62
   256
  9
$CSHADOW
280
     0
  9
$SHADOWPLANELOCATION
 40
0.0
  0
ENDSEC
  0
SECTION
  2
CLASSES
  0
CLASS
  1
ACDBDICTIONARYWDFLT
  2
AcDbDictionaryWithDefault
  3
ObjectDBX Classes
 90
        0
 91
        4
280
     0
281
     0
  0
CLASS
  1
VISUALSTYLE
  2
AcDbVisualStyle
  3
ObjectDBX Classes
 90
     4095
 91
        4
280
     0
281
     0
  0
CLASS
  1
MATERIAL
  2
AcDbMaterial
  3
ObjectDBX Classes
 90
     1153
 91
        4
280
     0
281
     0
  0
CLASS
  1
SCALE
  2
AcDbScale
  3
ObjectDBX Classes
 90
     1153
 91
        4
280
     0
281
     0
  0
CLASS
  1
SUN
  2
AcDbSun
  3
SCENEOE
 90
     1153
 91
        4
280
     0
281
     0
  0
CLASS
  1
DICTIONARYVAR
  2
AcDbDictionaryVar
  3
ObjectDBX Classes
 90
        0
 91
        4
280
     0
281
     0
  0
ENDSEC
  0
SECTION
  2
TABLES
  0
TABLE
  2
VPORT
  5
8
330
0
100
AcDbSymbolTable
 70
     1
  0
VPORT
  5
29
330
8
100
AcDbSymbolTableRecord
100
AcDbViewportTableRecord
  2
*Active
 70
     0
 10
0.0
 20
0.0
 11
1.0
 21
1.0
 12
344.1869158878504
 22
148.5
 13
0.0
 23
0.0
 14
10.0
 24
10.0
 15
10.0
 25
10.0
 16
0.0
 26
0.0
 36
1.0
 17
0.0
 27
0.0
 37
0.0
 40
297.0
 41
1.972972972850329
 42
50.0
 43
0.0
 44
0.0
 50
0.0
 51
0.0
 71
     0
 72
   100
 73
     1
 74
     3
 75
     0
 76
     0
 77
     0
 78
     0
281
     0
 65
     1
110
0.0
120
0.0
130
0.0
111
1.0
121
0.0
131
0.0
112
0.0
122
1.0
132
0.0
 79
     0
146
0.0
 60
     3
 61
     5
292
     1
282
     1
141
0.0
142
0.0
 63
   250
361
69
  0
ENDTAB
  0
TABLE
  2
LTYPE
  5
5
330
0
100
AcDbSymbolTable
 70
     1
  0
LTYPE
  5
14
330
5
100
AcDbSymbolTableRecord
100
AcDbLinetypeTableRecord
  2
ByBlock
 70
     0
  3

 72
    65
 73
     0
 40
0.0
  0
LTYPE
  5
15
330
5
100
AcDbSymbolTableRecord
100
AcDbLinetypeTableRecord
  2
ByLayer
 70
     0
  3

 72
    65
 73
     0
 40
0.0
  0
LTYPE
  5
16
330
5
100
AcDbSymbolTableRecord
100
AcDbLinetypeTableRecord
  2
Continuous
 70
     0
  3
Solid line
 72
    65
 73
     0
 40
0.0
  0
ENDTAB
  0
TABLE
  2
LAYER
  5
2
330
0
100
AcDbSymbolTable
 70
     2
  0
LAYER
  5
10
330
2
100
AcDbSymbolTableRecord
100
AcDbLayerTableRecord
  2
0
 70
     0
 62
     7
  6
Continuous
370
    -3
390
F
347
46
348
0
  0
LAYER
  5
6A
330
2
100
AcDbSymbolTableRecord
100
AcDbLayerTableRecord
  2
Sheet
 70
     0
 62
   255
  6
Continuous
370
    -3
390
F
347
46
348
0
  0
ENDTAB
  0
TABLE
  2
STYLE
  5
3
330
0
100
AcDbSymbolTable
 70
     1
  0
STYLE
  5
11
330
3
100
AcDbSymbolTableRecord
100
AcDbTextStyleTableRecord
  2
Standard
 70
     0
 40
0.0
 41
1.0
 50
0.0
 71
     0
 42
2.5
  3
txt
  4

  0
ENDTAB
  0
TABLE
  2
VIEW
  5
6
330
0
100
AcDbSymbolTable
 70
     0
  0
ENDTAB
  0
TABLE
  2
UCS
  5
7
330
0
100
AcDbSymbolTable
 70
     0
  0
ENDTAB
  0
TABLE
  2
APPID
  5
9
330
0
100
AcDbSymbolTable
 70
     1
  0
APPID
  5
12
330
9
100
AcDbSymbolTableRecord
100
AcDbRegAppTableRecord
  2
ACAD
 70
     0
  0
ENDTAB
  0
TABLE
  2
DIMSTYLE
  5
A
330
0
100
AcDbSymbolTable
 70
     1
100
AcDbDimStyleTable
  0
DIMSTYLE
105
27
330
A
100
AcDbSymbolTableRecord
100
AcDbDimStyleTableRecord
  2
ISO-25
 70
     0
 41
2.5
 42
0.625
 43
3.75
 44
1.25
 73
     0
 74
     0
 77
     1
 78
     8
140
2.5
141
2.5
143
0.03937007874016
147
0.625
171
     3
172
     1
178
     0
271
     2
272
     2
274
     3
278
    44
283
     0
284
     8
340
11
  0
ENDTAB
  0
TABLE
  2
BLOCK_RECORD
  5
1
330
0
100
AcDbSymbolTable
 70
     1
  0
BLOCK_RECORD
  5
1F
330
1
100
AcDbSymbolTableRecord
100
AcDbBlockTableRecord
  2
*Model_Space
340
22
 70
     0
280
     1
281
     0
  0
BLOCK_RECORD
  5
1B
330
1
100
AcDbSymbolTableRecord
100
AcDbBlockTableRecord
  2
*Paper_Space
340
1E
 70
     0
280
     1
281
     0
  0
BLOCK_RECORD
  5
23
330
1
100
AcDbSymbolTableRecord
100
AcDbBlockTableRecord
  2
*Paper_Space0
340
26
 70
     0
280
     1
281
     0
  0
ENDTAB
  0
ENDSEC
  0
SECTION
  2
BLOCKS
  0
BLOCK
  5
20
330
1F
100
AcDbEntity
  8
0
100
AcDbBlockBegin
  2
*Model_Space
 70
     0
 10
0.0
 20
0.0
 30
0.0
  3
*Model_Space
  1
*Model_Space
  0
ENDBLK
  5
21
330
1F
100
AcDbEntity
  8
0
100
AcDbBlockEnd
  0
BLOCK
  5
1C
330
1B
100
AcDbEntity
 67
     1
  8
0
100
AcDbBlockBegin
  2
*Paper_Space
 70
     0
 10
0.0
 20
0.0
 30
0.0
  3
*Paper_Space
  1
*Paper_Space
  0
ENDBLK
  5
1D
330
1B
100
AcDbEntity
 67
     1
  8
0
100
AcDbBlockEnd
  0
BLOCK
  5
24
330
23
100
AcDbEntity
  8
0
100
AcDbBlockBegin
  2
*Paper_Space0
 70
     0
 10
0.0
 20
0.0
 30
0.0
  3
*Paper_Space0
  1
*Paper_Space0
  0
ENDBLK
  5
25
330
23
100
AcDbEntity
  8
0
100
AcDbBlockEnd
  0
ENDSEC
  0
SECTION
  2
ENTITIES
  0
SOLID
  5
6B
330
1F
100
AcDbEntity
  8
Sheet
100
AcDbTrace
 10
17.203166
 20
21.89353
 30
0.0
 11
17.78
 21
20.163282
 31
0.0
 12
18.356834
 22
21.89353
 32
0.0
 13
18.356834
 23
21.89353
 33
0.0
  0
SOLID
  5
6C
330
1F
100
AcDbEntity
  8
Sheet
100
AcDbTrace
 10
18.356834
 20
22.04847
 30
0.0
 11
17.78
 21
23.778718
 31
0.0
 12
17.203166
 22
22.04847
 32
0.0
 13
17.203166
 23
22.04847
 33
0.0
  0
SOLID
  5
6D
330
1F
100
AcDbEntity
  8
Sheet
100
AcDbTrace
 10
-18.356834
 20
21.89353
 30
0.0
 11
-17.78
 21
20.163282
 31
0.0
 12
-17.203166
 22
21.89353
 32
0.0
 13
-17.203166
 23
21.89353
 33
0.0
  0
SOLID
  5
6E
330
1F
100
AcDbEntity
  8
Sheet
100
AcDbTrace
 10
-17.203166
 20
22.04847
 30
0.0
 11
-17.78
 21
23.778718
 31
0.0
 12
-18.356834
 22
22.04847
 32
0.0
 13
-18.356834
 23
22.04847
 33
0.0
  0
SOLID
  5
6F
330
1F
100
AcDbEntity
  8
Sheet
100
AcDbTrace
 10
-15.816834
 20
21.89353
 30
0.0
 11
-15.24
 21
20.163282
 31
0.0
 12
-14.663166
 22
21.89353
 32
0.0
 13
-14.663166
 23
21.89353
 33
0.0
  0
SOLID
  5
70
330
1F
100
AcDbEntity
  8
Sheet
100
AcDbTrace
 10
-14.663166
 20
22.04847
 30
0.0
 11
-15.24
 21
23.778718
 31
0.0
 12
-15.816834
 22
22.04847
 32
0.0
 13
-15.816834
 23
22.04847
 33
0.0
  0
SOLID
  5
71
330
1F
100
AcDbEntity
  8
Sheet
100
AcDbTrace
 10
-13.276834
 20
21.89353
 30
0.0
 11
-12.7
 21
20.163282
 31
0.0
 12
-12.123166
 22
21.89353
 32
0.0
 13
-12.123166
 23
21.89353
 33
0.0
  0
SOLID
  5
72
330
1F
100
AcDbEntity
  8
Sheet
100
AcDbTrace
 10
-12.123166
 20
22.04847
 30
0.0
 11
-12.7
 21
23.778718
 31
0.0
 12
-13.276834
 22
22.04847
 32
0.0
 13
-13.276834
 23
22.04847
 33
0.0
  0
SOLID
  5
73
330
1F
100
AcDbEntity
  8
Sheet
100
AcDbTrace
 10
-10.736834
 20
21.89353
 30
0.0
 11
-10.16
 21
20.163282
 31
0.0
 12
-9.583166
 22
21.89353
 32
0.0
 13
-9.583166
 23
21.89353
 33
0.0
  0
SOLID
  5
74
330
1F
100
AcDbEntity
  8
Sheet
100
AcDbTrace
 10
-9.583166
 20
22.04847
 30
0.0
 11
-10.16
 21
23.778718
 31
0.0
 12
-10.736834
 22
22.04847
 32
0.0
 13
-10.736834
 23
22.04847
 33
0.0
  0
SOLID
  5
75
330
1F
100
AcDbEntity
  8
Sheet
100
AcDbTrace
 10
7.043165999999999
 20
21.89353
 30
0.0
 11
7.619999999999999
 21
20.163282
 31
0.0
 12
8.196833999999999
 22
21.89353
 32
0.0
 13
8.196833999999999
 23
21.89353
 33
0.0
  0
SOLID
  5
76
330
1F
100
AcDbEntity
  8
Sheet
100
AcDbTrace
 10
8.196833999999999
 20
22.04847
 30
0.0
 11
7.619999999999999
 21
23.778718
 31
0.0
 12
7.043165999999999
 22
22.04847
 32
0.0
 13
7.043165999999999
 23
22.04847
 33
0.0
  0
SOLID
  5
77
330
1F
100
AcDbEntity
  8
Sheet
100
AcDbTrace
 10
12.123166
 20
21.89353
 30
0.0
 11
12.7
 21
20.163282
 31
0.0
 12
13.276834
 22
21.89353
 32
0.0
 13
13.276834
 23
21.89353
 33
0.0
  0
SOLID
  5
78
330
1F
100
AcDbEntity
  8
Sheet
100
AcDbTrace
 10
13.276834
 20
22.04847
 30
0.0
 11
12.7
 21
23.778718
 31
0.0
 12
12.123166
 22
22.04847
 32
0.0
 13
12.123166
 23
22.04847
 33
0.0
  0
SOLID
  5
79
330
1F
100
AcDbEntity
  8
Sheet
100
AcDbTrace
 10
4.503165999999999
 20
21.89353
 30
0.0
 11
5.08
 21
20.163282
 31
0.0
 12
5.656834
 22
21.89353
 32
0.0
 13
5.656834
 23
21.89353
 33
0.0
  0
SOLID
  5
7A
330
1F
100
AcDbEntity
  8
Sheet
100
AcDbTrace
 10
5.656834
 20
22.04847
 30
0.0
 11
5.08
 21
23.778718
 31
0.0
 12
4.503165999999999
 22
22.04847
 32
0.0
 13
4.503165999999999
 23
22.04847
 33
0.0
  0
SOLID
  5
7B
330
1F
100
AcDbEntity
  8
Sheet
100
AcDbTrace
 10
9.583166
 20
21.89353
 30
0.0
 11
10.16
 21
20.163282
 31
0.0
 12
10.736834
 22
21.89353
 32
0.0
 13
10.736834
 23
21.89353
 33
0.0
  0
SOLID
  5
7C
330
1F
100
AcDbEntity
  8
Sheet
100
AcDbTrace
 10
10.736834
 20
22.04847
 30
0.0
 11
10.16
 21
23.778718
 31
0.0
 12
9.583166
 22
22.04847
 32
0.0
 13
9.583166
 23
22.04847
 33
0.0
  0
SOLID
  5
7D
330
1F
100
AcDbEntity
  8
Sheet
100
AcDbTrace
 10
14.663166
 20
21.89353
 30
0.0
 11
15.24
 21
20.163282
 31
0.0
 12
15.816834
 22
21.89353
 32
0.0
 13
15.816834
 23
21.89353
 33
0.0
  0
SOLID
  5
7E
330
1F
100
AcDbEntity
  8
Sheet
100
AcDbTrace
 10
15.816834
 20
22.04847
 30
0.0
 11
15.24
 21
23.778718
 31
0.0
 12
14.663166
 22
22.04847
 32
0.0
 13
14.663166
 23
22.04847
 33
0.0
  0
SOLID
  5
7F
330
1F
100
AcDbEntity
  8
Sheet
100
AcDbTrace
 10
-14.663166
 20
-21.89353
 30
0.0
 11
-15.24
 21
-20.163282
 31
0.0
 12
-15.816834
 22
-21.89353
 32
0.0
 13
-15.816834
 23
-21.89353
 33
0.0
  0
SOLID
  5
80
330
1F
100
AcDbEntity
  8
Sheet
100
AcDbTrace
 10
-9.583166
 20
-21.89353
 30
0.0
 11
-10.16
 21
-20.163282
 31
0.0
 12
-10.736834
 22
-21.89353
 32
0.0
 13
-10.736834
 23
-21.89353
 33
0.0
  0
SOLID
  5
81
330
1F
100
AcDbEntity
  8
Sheet
100
AcDbTrace
 10
-8.196833999999999
 20
-20.27047
 30
0.0
 11
-7.619999999999999
 21
-22.000718
 31
0.0
 12
-7.043165999999999
 22
-20.27047
 32
0.0
 13
-7.043165999999999
 23
-20.27047
 33
0.0
  0
SOLID
  5
82
330
1F
100
AcDbEntity
  8
Sheet
100
AcDbTrace
 10
-3.116834
 20
-20.27047
 30
0.0
 11
-2.54
 21
-22.000718
 31
0.0
 12
-1.963166
 22
-20.27047
 32
0.0
 13
-1.963166
 23
-20.27047
 33
0.0
  0
SOLID
  5
83
330
1F
100
AcDbEntity
  8
Sheet
100
AcDbTrace
 10
0.576834
 20
-21.89353
 30
0.0
 11
0.0
 21
-20.163282
 31
0.0
 12
-0.576834
 22
-21.89353
 32
0.0
 13
-0.576834
 23
-21.89353
 33
0.0
  0
SOLID
  5
84
330
1F
100
AcDbEntity
  8
Sheet
100
AcDbTrace
 10
-13.276834
 20
-20.27047
 30
0.0
 11
-12.7
 21
-22.000718
 31
0.0
 12
-12.123166
 22
-20.27047
 32
0.0
 13
-12.123166
 23
-20.27047
 33
0.0
  0
SOLID
  5
85
330
1F
100
AcDbEntity
  8
Sheet
100
AcDbTrace
 10
-4.503165999999999
 20
-21.89353
 30
0.0
 11
-5.08
 21
-20.163282
 31
0.0
 12
-5.656834
 22
-21.89353
 32
0.0
 13
-5.656834
 23
-21.89353
 33
0.0
  0
SOLID
  5
86
330
1F
100
AcDbEntity
  8
Sheet
100
AcDbTrace
 10
1.963166
 20
-20.27047
 30
0.0
 11
2.54
 21
-22.000718
 31
0.0
 12
3.116834
 22
-20.27047
 32
0.0
 13
3.116834
 23
-20.27047
 33
0.0
  0
SOLID
  5
87
330
1F
100
AcDbEntity
  8
Sheet
100
AcDbTrace
 10
-21.89353
 20
1.963166
 30
0.0
 11
-20.163282
 21
2.54
 31
0.0
 12
-21.89353
 22
3.116834
 32
0.0
 13
-21.89353
 23
3.116834
 33
0.0
  0
SOLID
  5
88
330
1F
100
AcDbEntity
  8
Sheet
100
AcDbTrace
 10
-22.04847
 20
3.116834
 30
0.0
 11
-23.778718
 21
2.54
 31
0.0
 12
-22.04847
 22
1.963166
 32
0.0
 13
-22.04847
 23
1.963166
 33
0.0
  0
SOLID
  5
89
330
1F
100
AcDbEntity
  8
Sheet
100
AcDbTrace
 10
-21.89353
 20
-0.576834
 30
0.0
 11
-20.163282
 21
0.0
 31
0.0
 12
-21.89353
 22
0.576834
 32
0.0
 13
-21.89353
 23
0.576834
 33
0.0
  0
SOLID
  5
8A
330
1F
100
AcDbEntity
  8
Sheet
100
AcDbTrace
 10
-22.04847
 20
0.576834
 30
0.0
 11
-23.778718
 21
0.0
 31
0.0
 12
-22.04847
 22
-0.576834
 32
0.0
 13
-22.04847
 23
-0.576834
 33
0.0
  0
SOLID
  5
8B
330
1F
100
AcDbEntity
  8
Sheet
100
AcDbTrace
 10
-21.89353
 20
-3.116834
 30
0.0
 11
-20.163282
 21
-2.54
 31
0.0
 12
-21.89353
 22
-1.963166
 32
0.0
 13
-21.89353
 23
-1.963166
 33
0.0
  0
SOLID
  5
8C
330
1F
100
AcDbEntity
  8
Sheet
100
AcDbTrace
 10
-22.04847
 20
-1.963166
 30
0.0
 11
-23.778718
 21
-2.54
 31
0.0
 12
-22.04847
 22
-3.116834
 32
0.0
 13
-22.04847
 23
-3.116834
 33
0.0
  0
LWPOLYLINE
  5
8D
330
1F
100
AcDbEntity
  8
Sheet
100
AcDbPolyline
 90
        5
 70
     0
 43
0.09906
 10
-20.32083312
 20
20.32083312
 10
20.27856752
 20
20.32083312
 10
20.27856752
 20
-20.27856752
 10
-20.32083312
 20
-20.27856752
 10
-20.32083312
 20
20.32083312
  0
LWPOLYLINE
  5
8E
330
1F
100
AcDbEntity
  8
Sheet
100
AcDbPolyline
 90
        2
 70
     0
 43
0.29972
 10
17.78
 20
20.32
 10
17.78
 20
25.4
  0
LWPOLYLINE
  5
8F
330
1F
100
AcDbEntity
  8
Sheet
100
AcDbPolyline
 90
        4
 70
     1
 43
0.29972
 10
17.78
 20
20.32
 10
17.272
 20
21.844
 10
18.288
 20
21.844
 10
17.78
 20
20.32
  0
LWPOLYLINE
  5
90
330
1F
100
AcDbEntity
  8
Sheet
100
AcDbPolyline
 90
        4
 70
     1
 43
0.09906
 10
17.272
 20
21.844
 10
17.78
 20
20.32
 10
18.288
 20
21.844
 10
17.272
 20
21.844
  0
LWPOLYLINE
  5
91
330
1F
100
AcDbEntity
  8
Sheet
100
AcDbPolyline
 90
        4
 70
     1
 43
0.09906
 10
18.288
 20
22.098
 10
17.272
 20
22.098
 10
17.78
 20
23.622
 10
18.288
 20
22.098
  0
LWPOLYLINE
  5
92
330
1F
100
AcDbEntity
  8
Sheet
100
AcDbPolyline
 90
        4
 70
     1
 43
0.09906
 10
17.272
 20
22.098
 10
18.288
 20
22.098
 10
17.78
 20
23.622
 10
17.272
 20
22.098
  0
TEXT
  5
93
330
1F
100
AcDbEntity
  8
Sheet
100
AcDbText
 10
18.41766446
 20
8.34985884
 30
0.0
 40
1.524
  1
M-BUS 3+
 50
90.0
100
AcDbText
  0
TEXT
  5
94
330
1F
100
AcDbEntity
  8
Sheet
100
AcDbText
 10
17.14766446
 20
23.368
 30
0.0
 40
1.524
  1
15
 50
90.0
100
AcDbText
  0
LWPOLYLINE
  5
95
330
1F
100
AcDbEntity
  8
Sheet
100
AcDbPolyline
 90
        4
 70
     0
 43
0.29972
 10
-18.288
 20
8.889999999999999
 10
-18.288
 20
7.619999999999999
 10
-17.78
 20
7.619999999999999
 10
-15.24
 20
6.35
  0
LWPOLYLINE
  5
96
330
1F
100
AcDbEntity
  8
Sheet
100
AcDbPolyline
 90
        3
 70
     0
 43
0.29972
 10
-15.24
 20
7.619999999999999
 10
-14.732
 20
7.619999999999999
 10
-14.732
 20
8.889999999999999
  0
LWPOLYLINE
  5
97
330
1F
100
AcDbEntity
  8
Sheet
100
AcDbPolyline
 90
        4
 70
     0
 43
0.29972
 10
-13.208
 20
8.889999999999999
 10
-13.208
 20
7.619999999999999
 10
-12.7
 20
7.619999999999999
 10
-10.16
 20
6.35
  0
LWPOLYLINE
  5
98
330
1F
100
AcDbEntity
  8
Sheet
100
AcDbPolyline
 90
        3
 70
     0
 43
0.29972
 10
-10.16
 20
7.619999999999999
 10
-9.652
 20
7.619999999999999
 10
-9.652
 20
8.889999999999999
  0
TEXT
  5
99
330
1F
100
AcDbEntity
  8
Sheet
100
AcDbText
 10
-11.01725
 20
0.50546254
 30
0.0
 40
1.524
  1
EMU M-BUS Center 250
100
AcDbText
  0
TEXT
  5
9A
330
1F
100
AcDbEntity
  8
Sheet
100
AcDbText
 10
-9.51507876
 20
-2.03453746
 30
0.0
 40
1.524
  1
M-BUS / S0 / Temp.
100
AcDbText
  0
LWPOLYLINE
  5
9B
330
1F
100
AcDbEntity
  8
Sheet
100
AcDbPolyline
 90
        2
 70
     0
 43
0.29972
 10
-17.78
 20
20.32
 10
-17.78
 20
25.4
  0
LWPOLYLINE
  5
9C
330
1F
100
AcDbEntity
  8
Sheet
100
AcDbPolyline
 90
        4
 70
     1
 43
0.29972
 10
-17.78
 20
20.32
 10
-18.288
 20
21.844
 10
-17.272
 20
21.844
 10
-17.78
 20
20.32
  0
LWPOLYLINE
  5
9D
330
1F
100
AcDbEntity
  8
Sheet
100
AcDbPolyline
 90
        4
 70
     1
 43
0.29972
 10
-18.288
 20
21.844
 10
-17.78
 20
20.32
 10
-17.272
 20
21.844
 10
-18.288
 20
21.844
  0
LWPOLYLINE
  5
9E
330
1F
100
AcDbEntity
  8
Sheet
100
AcDbPolyline
 90
        4
 70
     1
 43
0.29972
 10
-17.272
 20
22.098
 10
-18.288
 20
22.098
 10
-17.78
 20
23.622
 10
-17.272
 20
22.098
  0
LWPOLYLINE
  5
9F
330
1F
100
AcDbEntity
  8
Sheet
100
AcDbPolyline
 90
        4
 70
     1
 43
0.29972
 10
-18.288
 20
22.098
 10
-17.272
 20
22.098
 10
-17.78
 20
23.622
 10
-18.288
 20
22.098
  0
TEXT
  5
A0
330
1F
100
AcDbEntity
  8
Sheet
100
AcDbText
 10
-17.14233554
 20
9.83004384
 30
0.0
 40
1.524
  1
Rel 1 NO
 50
90.0
100
AcDbText
  0
TEXT
  5
A1
330
1F
100
AcDbEntity
  8
Sheet
100
AcDbText
 10
-18.41233554
 20
23.368
 30
0.0
 40
1.524
  1
1
 50
90.0
100
AcDbText
  0
LWPOLYLINE
  5
A2
330
1F
100
AcDbEntity
  8
Sheet
100
AcDbPolyline
 90
        2
 70
     0
 43
0.29972
 10
-15.24
 20
20.32
 10
-15.24
 20
25.4
  0
LWPOLYLINE
  5
A3
330
1F
100
AcDbEntity
  8
Sheet
100
AcDbPolyline
 90
        4
 70
     1
 43
0.29972
 10
-15.24
 20
20.32
 10
-15.748
 20
21.844
 10
-14.732
 20
21.844
 10
-15.24
 20
20.32
  0
LWPOLYLINE
  5
A4
330
1F
100
AcDbEntity
  8
Sheet
100
AcDbPolyline
 90
        4
 70
     1
 43
0.29972
 10
-15.748
 20
21.844
 10
-15.24
 20
20.32
 10
-14.732
 20
21.844
 10
-15.748
 20
21.844
  0
LWPOLYLINE
  5
A5
330
1F
100
AcDbEntity
  8
Sheet
100
AcDbPolyline
 90
        4
 70
     1
 43
0.29972
 10
-14.732
 20
22.098
 10
-15.748
 20
22.098
 10
-15.24
 20
23.622
 10
-14.732
 20
22.098
  0
LWPOLYLINE
  5
A6
330
1F
100
AcDbEntity
  8
Sheet
100
AcDbPolyline
 90
        4
 70
     1
 43
0.29972
 10
-15.748
 20
22.098
 10
-14.732
 20
22.098
 10
-15.24
 20
23.622
 10
-15.748
 20
22.098
  0
TEXT
  5
A7
330
1F
100
AcDbEntity
  8
Sheet
100
AcDbText
 10
-14.60233554
 20
11.60626838
 30
0.0
 40
1.524
  1
Rel 1 C
 50
90.0
100
AcDbText
  0
TEXT
  5
A8
330
1F
100
AcDbEntity
  8
Sheet
100
AcDbText
 10
-15.87233554
 20
23.368
 30
0.0
 40
1.524
  1
2
 50
90.0
100
AcDbText
  0
LWPOLYLINE
  5
A9
330
1F
100
AcDbEntity
  8
Sheet
100
AcDbPolyline
 90
        2
 70
     0
 43
0.29972
 10
-12.7
 20
20.32
 10
-12.7
 20
25.4
  0
LWPOLYLINE
  5
AA
330
1F
100
AcDbEntity
  8
Sheet
100
AcDbPolyline
 90
        4
 70
     1
 43
0.29972
 10
-12.7
 20
20.32
 10
-13.208
 20
21.844
 10
-12.192
 20
21.844
 10
-12.7
 20
20.32
  0
LWPOLYLINE
  5
AB
330
1F
100
AcDbEntity
  8
Sheet
100
AcDbPolyline
 90
        4
 70
     1
 43
0.29972
 10
-13.208
 20
21.844
 10
-12.7
 20
20.32
 10
-12.192
 20
21.844
 10
-13.208
 20
21.844
  0
LWPOLYLINE
  5
AC
330
1F
100
AcDbEntity
  8
Sheet
100
AcDbPolyline
 90
        4
 70
     1
 43
0.29972
 10
-12.192
 20
22.098
 10
-13.208
 20
22.098
 10
-12.7
 20
23.622
 10
-12.192
 20
22.098
  0
LWPOLYLINE
  5
AD
330
1F
100
AcDbEntity
  8
Sheet
100
AcDbPolyline
 90
        4
 70
     1
 43
0.29972
 10
-13.208
 20
22.098
 10
-12.192
 20
22.098
 10
-12.7
 20
23.622
 10
-13.208
 20
22.098
  0
TEXT
  5
AE
330
1F
100
AcDbEntity
  8
Sheet
100
AcDbText
 10
-12.06233554
 20
9.83004384
 30
0.0
 40
1.524
  1
Rel 2 NO
 50
90.0
100
AcDbText
  0
TEXT
  5
AF
330
1F
100
AcDbEntity
  8
Sheet
100
AcDbText
 10
-13.33233554
 20
23.368
 30
0.0
 40
1.524
  1
3
 50
90.0
100
AcDbText
  0
LWPOLYLINE
  5
B0
330
1F
100
AcDbEntity
  8
Sheet
100
AcDbPolyline
 90
        2
 70
     0
 43
0.29972
 10
-10.16
 20
20.32
 10
-10.16
 20
25.4
  0
LWPOLYLINE
  5
B1
330
1F
100
AcDbEntity
  8
Sheet
100
AcDbPolyline
 90
        4
 70
     1
 43
0.29972
 10
-10.16
 20
20.32
 10
-10.668
 20
21.844
 10
-9.652
 20
21.844
 10
-10.16
 20
20.32
  0
LWPOLYLINE
  5
B2
330
1F
100
AcDbEntity
  8
Sheet
100
AcDbPolyline
 90
        4
 70
     1
 43
0.29972
 10
-10.668
 20
21.844
 10
-10.16
 20
20.32
 10
-9.652
 20
21.844
 10
-10.668
 20
21.844
  0
LWPOLYLINE
  5
B3
330
1F
100
AcDbEntity
  8
Sheet
100
AcDbPolyline
 90
        4
 70
     1
 43
0.29972
 10
-9.652
 20
22.098
 10
-10.668
 20
22.098
 10
-10.16
 20
23.622
 10
-9.652
 20
22.098
  0
LWPOLYLINE
  5
B4
330
1F
100
AcDbEntity
  8
Sheet
100
AcDbPolyline
 90
        4
 70
     1
 43
0.29972
 10
-10.668
 20
22.098
 10
-9.652
 20
22.098
 10
-10.16
 20
23.622
 10
-10.668
 20
22.098
  0
TEXT
  5
B5
330
1F
100
AcDbEntity
  8
Sheet
100
AcDbText
 10
-9.52233554
 20
11.60626838
 30
0.0
 40
1.524
  1
Rel 2 C
 50
90.0
100
AcDbText
  0
TEXT
  5
B6
330
1F
100
AcDbEntity
  8
Sheet
100
AcDbText
 10
-10.79233554
 20
23.368
 30
0.0
 40
1.524
  1
4
 50
90.0
100
AcDbText
  0
LWPOLYLINE
  5
B7
330
1F
100
AcDbEntity
  8
Sheet
100
AcDbPolyline
 90
        2
 70
     0
 43
0.29972
 10
-6.35
 20
20.32
 10
-6.35
 20
25.4
  0
TEXT
  5
B8
330
1F
100
AcDbEntity
  8
Sheet
100
AcDbText
 10
-5.71233554
 20
9.78775284
 30
0.0
 40
1.524
  1
PT1000 1
 50
90.0
100
AcDbText
  0
TEXT
  5
B9
330
1F
100
AcDbEntity
  8
Sheet
100
AcDbText
 10
-6.982335539999999
 20
23.368
 30
0.0
 40
1.524
  1
6
 50
90.0
100
AcDbText
  0
LWPOLYLINE
  5
BA
330
1F
100
AcDbEntity
  8
Sheet
100
AcDbPolyline
 90
        2
 70
     0
 43
0.29972
 10
-1.27
 20
20.32
 10
-1.27
 20
25.4
  0
TEXT
  5
BB
330
1F
100
AcDbEntity
  8
Sheet
100
AcDbText
 10
-0.6323355399999999
 20
9.66087984
 30
0.0
 40
1.524
  1
PT1000 2
 50
90.0
100
AcDbText
  0
TEXT
  5
BC
330
1F
100
AcDbEntity
  8
Sheet
100
AcDbText
 10
-1.90233554
 20
23.368
 30
0.0
 40
1.524
  1
8
 50
90.0
100
AcDbText
  0
LWPOLYLINE
  5
BD
330
1F
100
AcDbEntity
  8
Sheet
100
AcDbPolyline
 90
        2
 70
     0
 43
0.29972
 10
7.619999999999999
 20
20.32
 10
7.619999999999999
 20
25.4
  0
LWPOLYLINE
  5
BE
330
1F
100
AcDbEntity
  8
Sheet
100
AcDbPolyline
 90
        4
 70
     1
 43
0.29972
 10
7.619999999999999
 20
20.32
 10
7.111999999999999
 20
21.844
 10
8.128
 20
21.844
 10
7.619999999999999
 20
20.32
  0
LWPOLYLINE
  5
BF
330
1F
100
AcDbEntity
  8
Sheet
100
AcDbPolyline
 90
        4
 70
     1
 43
0.29972
 10
7.111999999999999
 20
21.844
 10
7.619999999999999
 20
20.32
 10
8.128
 20
21.844
 10
7.111999999999999
 20
21.844
  0
LWPOLYLINE
  5
C0
330
1F
100
AcDbEntity
  8
Sheet
100
AcDbPolyline
 90
        4
 70
     1
 43
0.29972
 10
8.128
 20
22.098
 10
7.111999999999999
 20
22.098
 10
7.619999999999999
 20
23.622
 10
8.128
 20
22.098
  0
LWPOLYLINE
  5
C1
330
1F
100
AcDbEntity
  8
Sheet
100
AcDbPolyline
 90
        4
 70
     1
 43
0.29972
 10
7.111999999999999
 20
22.098
 10
8.128
 20
22.098
 10
7.619999999999999
 20
23.622
 10
7.111999999999999
 20
22.098
  0
TEXT
  5
C2
330
1F
100
AcDbEntity
  8
Sheet
100
AcDbText
 10
8.257664459999999
 20
8.34985884
 30
0.0
 40
1.524
  1
M-BUS 1+
 50
90.0
100
AcDbText
  0
TEXT
  5
C3
330
1F
100
AcDbEntity
  8
Sheet
100
AcDbText
 10
6.98766446
 20
23.368
 30
0.0
 40
1.524
  1
11
 50
90.0
100
AcDbText
  0
LWPOLYLINE
  5
C4
330
1F
100
AcDbEntity
  8
Sheet
100
AcDbPolyline
 90
        2
 70
     0
 43
0.29972
 10
12.7
 20
20.32
 10
12.7
 20
25.4
  0
LWPOLYLINE
  5
C5
330
1F
100
AcDbEntity
  8
Sheet
100
AcDbPolyline
 90
        4
 70
     1
 43
0.29972
 10
12.7
 20
20.32
 10
12.192
 20
21.844
 10
13.208
 20
21.844
 10
12.7
 20
20.32
  0
LWPOLYLINE
  5
C6
330
1F
100
AcDbEntity
  8
Sheet
100
AcDbPolyline
 90
        4
 70
     1
 43
0.29972
 10
12.192
 20
21.844
 10
12.7
 20
20.32
 10
13.208
 20
21.844
 10
12.192
 20
21.844
  0
LWPOLYLINE
  5
C7
330
1F
100
AcDbEntity
  8
Sheet
100
AcDbPolyline
 90
        4
 70
     1
 43
0.29972
 10
13.208
 20
22.098
 10
12.192
 20
22.098
 10
12.7
 20
23.622
 10
13.208
 20
22.098
  0
LWPOLYLINE
  5
C8
330
1F
100
AcDbEntity
  8
Sheet
100
AcDbPolyline
 90
        4
 70
     1
 43
0.29972
 10
12.192
 20
22.098
 10
13.208
 20
22.098
 10
12.7
 20
23.622
 10
12.192
 20
22.098
  0
TEXT
  5
C9
330
1F
100
AcDbEntity
  8
Sheet
100
AcDbText
 10
13.33766446
 20
8.34985884
 30
0.0
 40
1.524
  1
M-BUS 2+
 50
90.0
100
AcDbText
  0
TEXT
  5
CA
330
1F
100
AcDbEntity
  8
Sheet
100
AcDbText
 10
12.06766446
 20
23.368
 30
0.0
 40
1.524
  1
13
 50
90.0
100
AcDbText
  0
LWPOLYLINE
  5
CB
330
1F
100
AcDbEntity
  8
Sheet
100
AcDbPolyline
 90
        2
 70
     0
 43
0.29972
 10
-3.81
 20
20.32
 10
-3.81
 20
25.4
  0
TEXT
  5
CC
330
1F
100
AcDbEntity
  8
Sheet
100
AcDbText
 10
-3.17233554
 20
9.280260839999999
 30
0.0
 40
1.524
  1
PT1000 C
 50
90.0
100
AcDbText
  0
TEXT
  5
CD
330
1F
100
AcDbEntity
  8
Sheet
100
AcDbText
 10
-4.44233554
 20
23.368
 30
0.0
 40
1.524
  1
7
 50
90.0
100
AcDbText
  0
LWPOLYLINE
  5
CE
330
1F
100
AcDbEntity
  8
Sheet
100
AcDbPolyline
 90
        2
 70
     0
 43
0.29972
 10
5.08
 20
20.32
 10
5.08
 20
25.4
  0
LWPOLYLINE
  5
CF
330
1F
100
AcDbEntity
  8
Sheet
100
AcDbPolyline
 90
        4
 70
     1
 43
0.29972
 10
5.08
 20
20.32
 10
4.572
 20
21.844
 10
5.588
 20
21.844
 10
5.08
 20
20.32
  0
LWPOLYLINE
  5
D0
330
1F
100
AcDbEntity
  8
Sheet
100
AcDbPolyline
 90
        4
 70
     1
 43
0.29972
 10
4.572
 20
21.844
 10
5.08
 20
20.32
 10
5.588
 20
21.844
 10
4.572
 20
21.844
  0
LWPOLYLINE
  5
D1
330
1F
100
AcDbEntity
  8
Sheet
100
AcDbPolyline
 90
        4
 70
     1
 43
0.29972
 10
5.588
 20
22.098
 10
4.572
 20
22.098
 10
5.08
 20
23.622
 10
5.588
 20
22.098
  0
LWPOLYLINE
  5
D2
330
1F
100
AcDbEntity
  8
Sheet
100
AcDbPolyline
 90
        4
 70
     1
 43
0.29972
 10
4.572
 20
22.098
 10
5.588
 20
22.098
 10
5.08
 20
23.622
 10
4.572
 20
22.098
  0
TEXT
  5
D3
330
1F
100
AcDbEntity
  8
Sheet
100
AcDbText
 10
5.71766446
 20
8.89964184
 30
0.0
 40
1.524
  1
M-BUS1 -
 50
90.0
100
AcDbText
  0
TEXT
  5
D4
330
1F
100
AcDbEntity
  8
Sheet
100
AcDbText
 10
4.447664459999999
 20
23.368
 30
0.0
 40
1.524
  1
10
 50
90.0
100
AcDbText
  0
LWPOLYLINE
  5
D5
330
1F
100
AcDbEntity
  8
Sheet
100
AcDbPolyline
 90
        2
 70
     0
 43
0.29972
 10
10.16
 20
20.32
 10
10.16
 20
25.4
  0
LWPOLYLINE
  5
D6
330
1F
100
AcDbEntity
  8
Sheet
100
AcDbPolyline
 90
        4
 70
     1
 43
0.29972
 10
10.16
 20
20.32
 10
9.652
 20
21.844
 10
10.668
 20
21.844
 10
10.16
 20
20.32
  0
LWPOLYLINE
  5
D7
330
1F
100
AcDbEntity
  8
Sheet
100
AcDbPolyline
 90
        4
 70
     1
 43
0.29972
 10
9.652
 20
21.844
 10
10.16
 20
20.32
 10
10.668
 20
21.844
 10
9.652
 20
21.844
  0
LWPOLYLINE
  5
D8
330
1F
100
AcDbEntity
  8
Sheet
100
AcDbPolyline
 90
        4
 70
     1
 43
0.29972
 10
10.668
 20
22.098
 10
9.652
 20
22.098
 10
10.16
 20
23.622
 10
10.668
 20
22.098
  0
LWPOLYLINE
  5
D9
330
1F
100
AcDbEntity
  8
Sheet
100
AcDbPolyline
 90
        4
 70
     1
 43
0.29972
 10
9.652
 20
22.098
 10
10.668
 20
22.098
 10
10.16
 20
23.622
 10
9.652
 20
22.098
  0
TEXT
  5
DA
330
1F
100
AcDbEntity
  8
Sheet
100
AcDbText
 10
10.79766446
 20
8.89964184
 30
0.0
 40
1.524
  1
M-BUS 2-
 50
90.0
100
AcDbText
  0
TEXT
  5
DB
330
1F
100
AcDbEntity
  8
Sheet
100
AcDbText
 10
9.527664459999999
 20
23.368
 30
0.0
 40
1.524
  1
12
 50
90.0
100
AcDbText
  0
LWPOLYLINE
  5
DC
330
1F
100
AcDbEntity
  8
Sheet
100
AcDbPolyline
 90
        2
 70
     0
 43
0.29972
 10
15.24
 20
20.32
 10
15.24
 20
25.4
  0
LWPOLYLINE
  5
DD
330
1F
100
AcDbEntity
  8
Sheet
100
AcDbPolyline
 90
        4
 70
     1
 43
0.29972
 10
15.24
 20
20.32
 10
14.732
 20
21.844
 10
15.748
 20
21.844
 10
15.24
 20
20.32
  0
LWPOLYLINE
  5
DE
330
1F
100
AcDbEntity
  8
Sheet
100
AcDbPolyline
 90
        4
 70
     1
 43
0.29972
 10
14.732
 20
21.844
 10
15.24
 20
20.32
 10
15.748
 20
21.844
 10
14.732
 20
21.844
  0
LWPOLYLINE
  5
DF
330
1F
100
AcDbEntity
  8
Sheet
100
AcDbPolyline
 90
        4
 70
     1
 43
0.29972
 10
15.748
 20
22.098
 10
14.732
 20
22.098
 10
15.24
 20
23.622
 10
15.748
 20
22.098
  0
LWPOLYLINE
  5
E0
330
1F
100
AcDbEntity
  8
Sheet
100
AcDbPolyline
 90
        4
 70
     1
 43
0.29972
 10
14.732
 20
22.098
 10
15.748
 20
22.098
 10
15.24
 20
23.622
 10
14.732
 20
22.098
  0
TEXT
  5
E1
330
1F
100
AcDbEntity
  8
Sheet
100
AcDbText
 10
15.87766446
 20
8.89964184
 30
0.0
 40
1.524
  1
M-BUS 3-
 50
90.0
100
AcDbText
  0
TEXT
  5
E2
330
1F
100
AcDbEntity
  8
Sheet
100
AcDbText
 10
14.60766446
 20
23.368
 30
0.0
 40
1.524
  1
14
 50
90.0
100
AcDbText
  0
LWPOLYLINE
  5
E3
330
1F
100
AcDbEntity
  8
Sheet
100
AcDbPolyline
 90
        2
 70
     0
 43
0.29972
 10
-15.24
 20
-20.32
 10
-15.24
 20
-25.4
  0
LWPOLYLINE
  5
E4
330
1F
100
AcDbEntity
  8
Sheet
100
AcDbPolyline
 90
        4
 70
     1
 43
0.29972
 10
-14.732
 20
-21.844
 10
-15.748
 20
-21.844
 10
-15.24
 20
-20.32
 10
-14.732
 20
-21.844
  0
LWPOLYLINE
  5
E5
330
1F
100
AcDbEntity
  8
Sheet
100
AcDbPolyline
 90
        4
 70
     1
 43
0.29972
 10
-15.748
 20
-21.844
 10
-15.24
 20
-20.32
 10
-14.732
 20
-21.844
 10
-15.748
 20
-21.844
  0
TEXT
  5
E6
330
1F
100
AcDbEntity
  8
Sheet
100
AcDbText
 10
-14.60233554
 20
-18.542
 30
0.0
 40
1.524
  1
S0 1B
 50
90.0
100
AcDbText
  0
TEXT
  5
E7
330
1F
100
AcDbEntity
  8
Sheet
100
AcDbText
 10
-15.87233554
 20
-24.298402
 30
0.0
 40
1.524
  1
1
 50
90.0
100
AcDbText
  0
LWPOLYLINE
  5
E8
330
1F
100
AcDbEntity
  8
Sheet
100
AcDbPolyline
 90
        2
 70
     0
 43
0.29972
 10
-10.16
 20
-20.32
 10
-10.16
 20
-25.4
  0
LWPOLYLINE
  5
E9
330
1F
100
AcDbEntity
  8
Sheet
100
AcDbPolyline
 90
        4
 70
     1
 43
0.29972
 10
-9.652
 20
-21.844
 10
-10.668
 20
-21.844
 10
-10.16
 20
-20.32
 10
-9.652
 20
-21.844
  0
LWPOLYLINE
  5
EA
330
1F
100
AcDbEntity
  8
Sheet
100
AcDbPolyline
 90
        4
 70
     1
 43
0.29972
 10
-10.668
 20
-21.844
 10
-10.16
 20
-20.32
 10
-9.652
 20
-21.844
 10
-10.668
 20
-21.844
  0
TEXT
  5
EB
330
1F
100
AcDbEntity
  8
Sheet
100
AcDbText
 10
-9.52233554
 20
-18.542
 30
0.0
 40
1.524
  1
S0 2B
 50
90.0
100
AcDbText
  0
TEXT
  5
EC
330
1F
100
AcDbEntity
  8
Sheet
100
AcDbText
 10
-10.79233554
 20
-24.298402
 30
0.0
 40
1.524
  1
3
 50
90.0
100
AcDbText
  0
LWPOLYLINE
  5
ED
330
1F
100
AcDbEntity
  8
Sheet
100
AcDbPolyline
 90
        2
 70
     0
 43
0.29972
 10
-7.619999999999999
 20
-20.32
 10
-7.619999999999999
 20
-25.4
  0
LWPOLYLINE
  5
EE
330
1F
100
AcDbEntity
  8
Sheet
100
AcDbPolyline
 90
        4
 70
     1
 43
0.29972
 10
-7.619999999999999
 20
-21.844
 10
-8.128
 20
-20.32
 10
-7.111999999999999
 20
-20.32
 10
-7.619999999999999
 20
-21.844
  0
LWPOLYLINE
  5
EF
330
1F
100
AcDbEntity
  8
Sheet
100
AcDbPolyline
 90
        4
 70
     1
 43
0.29972
 10
-7.619999999999999
 20
-21.844
 10
-8.128
 20
-20.32
 10
-7.111999999999999
 20
-20.32
 10
-7.619999999999999
 20
-21.844
  0
TEXT
  5
F0
330
1F
100
AcDbEntity
  8
Sheet
100
AcDbText
 10
-6.982335539999999
 20
-18.542
 30
0.0
 40
1.524
  1
S0 2A
 50
90.0
100
AcDbText
  0
TEXT
  5
F1
330
1F
100
AcDbEntity
  8
Sheet
100
AcDbText
 10
-8.252335539999999
 20
-24.425275
 30
0.0
 40
1.524
  1
4
 50
90.0
100
AcDbText
  0
LWPOLYLINE
  5
F2
330
1F
100
AcDbEntity
  8
Sheet
100
AcDbPolyline
 90
        2
 70
     0
 43
0.29972
 10
-2.54
 20
-20.32
 10
-2.54
 20
-25.4
  0
LWPOLYLINE
  5
F3
330
1F
100
AcDbEntity
  8
Sheet
100
AcDbPolyline
 90
        4
 70
     1
 43
0.29972
 10
-2.54
 20
-21.844
 10
-3.048
 20
-20.32
 10
-2.032
 20
-20.32
 10
-2.54
 20
-21.844
  0
LWPOLYLINE
  5
F4
330
1F
100
AcDbEntity
  8
Sheet
100
AcDbPolyline
 90
        4
 70
     1
 43
0.29972
 10
-2.54
 20
-21.844
 10
-3.048
 20
-20.32
 10
-2.032
 20
-20.32
 10
-2.54
 20
-21.844
  0
TEXT
  5
F5
330
1F
100
AcDbEntity
  8
Sheet
100
AcDbText
 10
-1.90233554
 20
-18.542
 30
0.0
 40
1.524
  1
S0 3A
 50
90.0
100
AcDbText
  0
TEXT
  5
F6
330
1F
100
AcDbEntity
  8
Sheet
100
AcDbText
 10
-3.17233554
 20
-24.425275
 30
0.0
 40
1.524
  1
6
 50
90.0
100
AcDbText
  0
LWPOLYLINE
  5
F7
330
1F
100
AcDbEntity
  8
Sheet
100
AcDbPolyline
 90
        2
 70
     0
 43
0.29972
 10
0.0
 20
-20.32
 10
0.0
 20
-25.4
  0
LWPOLYLINE
  5
F8
330
1F
100
AcDbEntity
  8
Sheet
100
AcDbPolyline
 90
        4
 70
     1
 43
0.29972
 10
0.508
 20
-21.844
 10
-0.508
 20
-21.844
 10
0.0
 20
-20.32
 10
0.508
 20
-21.844
  0
LWPOLYLINE
  5
F9
330
1F
100
AcDbEntity
  8
Sheet
100
AcDbPolyline
 90
        4
 70
     1
 43
0.29972
 10
-0.508
 20
-21.844
 10
0.0
 20
-20.32
 10
0.508
 20
-21.844
 10
-0.508
 20
-21.844
  0
TEXT
  5
FA
330
1F
100
AcDbEntity
  8
Sheet
100
AcDbText
 10
0.63766446
 20
-18.542
 30
0.0
 40
1.524
  1
S0 4B
 50
90.0
100
AcDbText
  0
TEXT
  5
FB
330
1F
100
AcDbEntity
  8
Sheet
100
AcDbText
 10
-0.6323355399999999
 20
-24.425275
 30
0.0
 40
1.524
  1
7
 50
90.0
100
AcDbText
  0
LWPOLYLINE
  5
FC
330
1F
100
AcDbEntity
  8
Sheet
100
AcDbPolyline
 90
        2
 70
     0
 43
0.29972
 10
12.7
 20
-20.32
 10
12.7
 20
-25.4
  0
TEXT
  5
FD
330
1F
100
AcDbEntity
  8
Sheet
100
AcDbText
 10
13.33766446
 20
-18.542
 30
0.0
 40
1.524
  1
+24V
 50
90.0
100
AcDbText
  0
TEXT
  5
FE
330
1F
100
AcDbEntity
  8
Sheet
100
AcDbText
 10
12.06766446
 20
-24.425275
 30
0.0
 40
1.524
  1
9
 50
90.0
100
AcDbText
  0
LWPOLYLINE
  5
FF
330
1F
100
AcDbEntity
  8
Sheet
100
AcDbPolyline
 90
        2
 70
     0
 43
0.29972
 10
15.24
 20
-20.32
 10
15.24
 20
-25.4
  0
TEXT
  5
100
330
1F
100
AcDbEntity
  8
Sheet
100
AcDbText
 10
15.87766446
 20
-18.542
 30
0.0
 40
1.524
  1
GND
 50
90.0
100
AcDbText
  0
TEXT
  5
101
330
1F
100
AcDbEntity
  8
Sheet
100
AcDbText
 10
14.60766446
 20
-25.56713454
 30
0.0
 40
1.524
  1
10
 50
90.0
100
AcDbText
  0
LWPOLYLINE
  5
102
330
1F
100
AcDbEntity
  8
Sheet
100
AcDbPolyline
 90
        2
 70
     0
 43
0.29972
 10
-12.7
 20
-20.32
 10
-12.7
 20
-25.4
  0
LWPOLYLINE
  5
103
330
1F
100
AcDbEntity
  8
Sheet
100
AcDbPolyline
 90
        4
 70
     1
 43
0.29972
 10
-12.7
 20
-21.844
 10
-13.208
 20
-20.32
 10
-12.192
 20
-20.32
 10
-12.7
 20
-21.844
  0
LWPOLYLINE
  5
104
330
1F
100
AcDbEntity
  8
Sheet
100
AcDbPolyline
 90
        4
 70
     1
 43
0.29972
 10
-12.7
 20
-21.844
 10
-13.208
 20
-20.32
 10
-12.192
 20
-20.32
 10
-12.7
 20
-21.844
  0
TEXT
  5
105
330
1F
100
AcDbEntity
  8
Sheet
100
AcDbText
 10
-12.06233554
 20
-18.542
 30
0.0
 40
1.524
  1
S0 1A
 50
90.0
100
AcDbText
  0
TEXT
  5
106
330
1F
100
AcDbEntity
  8
Sheet
100
AcDbText
 10
-13.33233554
 20
-24.425275
 30
0.0
 40
1.524
  1
2
 50
90.0
100
AcDbText
  0
LWPOLYLINE
  5
107
330
1F
100
AcDbEntity
  8
Sheet
100
AcDbPolyline
 90
        2
 70
     0
 43
0.29972
 10
-5.08
 20
-20.32
 10
-5.08
 20
-25.4
  0
LWPOLYLINE
  5
108
330
1F
100
AcDbEntity
  8
Sheet
100
AcDbPolyline
 90
        4
 70
     1
 43
0.29972
 10
-4.572
 20
-21.844
 10
-5.588
 20
-21.844
 10
-5.08
 20
-20.32
 10
-4.572
 20
-21.844
  0
LWPOLYLINE
  5
109
330
1F
100
AcDbEntity
  8
Sheet
100
AcDbPolyline
 90
        4
 70
     1
 43
0.29972
 10
-5.588
 20
-21.844
 10
-5.08
 20
-20.32
 10
-4.572
 20
-21.844
 10
-5.588
 20
-21.844
  0
TEXT
  5
10A
330
1F
100
AcDbEntity
  8
Sheet
100
AcDbText
 10
-4.44233554
 20
-18.542
 30
0.0
 40
1.524
  1
S0 3B
 50
90.0
100
AcDbText
  0
TEXT
  5
10B
330
1F
100
AcDbEntity
  8
Sheet
100
AcDbText
 10
-5.71233554
 20
-24.340693
 30
0.0
 40
1.524
  1
5
 50
90.0
100
AcDbText
  0
LWPOLYLINE
  5
10C
330
1F
100
AcDbEntity
  8
Sheet
100
AcDbPolyline
 90
        2
 70
     0
 43
0.29972
 10
2.54
 20
-20.32
 10
2.54
 20
-25.4
  0
LWPOLYLINE
  5
10D
330
1F
100
AcDbEntity
  8
Sheet
100
AcDbPolyline
 90
        4
 70
     1
 43
0.29972
 10
2.54
 20
-21.844
 10
2.032
 20
-20.32
 10
3.048
 20
-20.32
 10
2.54
 20
-21.844
  0
LWPOLYLINE
  5
10E
330
1F
100
AcDbEntity
  8
Sheet
100
AcDbPolyline
 90
        4
 70
     1
 43
0.29972
 10
2.54
 20
-21.844
 10
2.032
 20
-20.32
 10
3.048
 20
-20.32
 10
2.54
 20
-21.844
  0
TEXT
  5
10F
330
1F
100
AcDbEntity
  8
Sheet
100
AcDbText
 10
3.17766446
 20
-18.542
 30
0.0
 40
1.524
  1
S0 4A
 50
90.0
100
AcDbText
  0
TEXT
  5
110
330
1F
100
AcDbEntity
  8
Sheet
100
AcDbText
 10
1.90766446
 20
-24.382984
 30
0.0
 40
1.524
  1
8
 50
90.0
100
AcDbText
  0
LWPOLYLINE
  5
111
330
1F
100
AcDbEntity
  8
Sheet
100
AcDbPolyline
 90
        3
 70
     0
 43
0.29972
 10
0.0
 20
-10.16
 10
-0.508
 20
-10.16
 10
-0.508
 20
-11.43
  0
LWPOLYLINE
  5
112
330
1F
100
AcDbEntity
  8
Sheet
100
AcDbPolyline
 90
        3
 70
     0
 43
0.29972
 10
-2.032
 20
-11.43
 10
-2.032
 20
-10.16
 10
-2.54
 20
-10.16
  0
LWPOLYLINE
  5
113
330
1F
100
AcDbEntity
  8
Sheet
100
AcDbPolyline
 90
        3
 70
     0
 43
0.29972
 10
-5.08
 20
-10.16
 10
-5.588
 20
-10.16
 10
-5.588
 20
-11.43
  0
LWPOLYLINE
  5
114
330
1F
100
AcDbEntity
  8
Sheet
100
AcDbPolyline
 90
        3
 70
     0
 43
0.29972
 10
-7.111999999999999
 20
-11.43
 10
-7.111999999999999
 20
-10.16
 10
-7.619999999999999
 20
-10.16
  0
LWPOLYLINE
  5
115
330
1F
100
AcDbEntity
  8
Sheet
100
AcDbPolyline
 90
        3
 70
     0
 43
0.29972
 10
-10.16
 20
-10.16
 10
-10.668
 20
-10.16
 10
-10.668
 20
-11.43
  0
LWPOLYLINE
  5
116
330
1F
100
AcDbEntity
  8
Sheet
100
AcDbPolyline
 90
        3
 70
     0
 43
0.29972
 10
-12.192
 20
-11.43
 10
-12.192
 20
-10.16
 10
-12.7
 20
-10.16
  0
LWPOLYLINE
  5
117
330
1F
100
AcDbEntity
  8
Sheet
100
AcDbPolyline
 90
        3
 70
     0
 43
0.29972
 10
-15.24
 20
-10.16
 10
-15.748
 20
-10.16
 10
-15.748
 20
-11.43
  0
LWPOLYLINE
  5
118
330
1F
100
AcDbEntity
  8
Sheet
100
AcDbPolyline
 90
        2
 70
     0
 43
0.29972
 10
-6.603999999999999
 20
7.619999999999999
 10
-6.603999999999999
 20
8.889999999999999
  0
LWPOLYLINE
  5
119
330
1F
100
AcDbEntity
  8
Sheet
100
AcDbPolyline
 90
        2
 70
     0
 43
0.29972
 10
-20.32
 20
2.54
 10
-25.4
 20
2.54
  0
LWPOLYLINE
  5
11A
330
1F
100
AcDbEntity
  8
Sheet
100
AcDbPolyline
 90
        4
 70
     1
 43
0.29972
 10
-20.32
 20
2.54
 10
-21.844
 20
2.032
 10
-21.844
 20
3.048
 10
-20.32
 20
2.54
  0
LWPOLYLINE
  5
11B
330
1F
100
AcDbEntity
  8
Sheet
100
AcDbPolyline
 90
        4
 70
     1
 43
0.29972
 10
-21.844
 20
3.048
 10
-20.32
 20
2.54
 10
-21.844
 20
2.032
 10
-21.844
 20
3.048
  0
LWPOLYLINE
  5
11C
330
1F
100
AcDbEntity
  8
Sheet
100
AcDbPolyline
 90
        4
 70
     1
 43
0.29972
 10
-22.098
 20
2.032
 10
-23.622
 20
2.54
 10
-22.098
 20
3.048
 10
-22.098
 20
2.032
  0
LWPOLYLINE
  5
11D
330
1F
100
AcDbEntity
  8
Sheet
100
AcDbPolyline
 90
        4
 70
     1
 43
0.29972
 10
-22.098
 20
3.048
 10
-22.098
 20
2.032
 10
-23.622
 20
2.54
 10
-22.098
 20
3.048
  0
TEXT
  5
11E
330
1F
100
AcDbEntity
  8
Sheet
100
AcDbText
 10
-18.542
 20
1.77546254
 30
0.0
 40
1.524
  1
LAN
100
AcDbText
  0
TEXT
  5
11F
330
1F
100
AcDbEntity
  8
Sheet
100
AcDbText
 10
-27.76626908
 20
3.04546254
 30
0.0
 40
1.524
  1
RJ45
100
AcDbText
  0
LWPOLYLINE
  5
120
330
1F
100
AcDbEntity
  8
Sheet
100
AcDbPolyline
 90
        2
 70
     0
 43
0.29972
 10
-20.32
 20
0.0
 10
-25.4
 20
0.0
  0
LWPOLYLINE
  5
121
330
1F
100
AcDbEntity
  8
Sheet
100
AcDbPolyline
 90
        4
 70
     1
 43
0.29972
 10
-20.32
 20
0.0
 10
-21.844
 20
-0.508
 10
-21.844
 20
0.508
 10
-20.32
 20
0.0
  0
LWPOLYLINE
  5
122
330
1F
100
AcDbEntity
  8
Sheet
100
AcDbPolyline
 90
        4
 70
     1
 43
0.29972
 10
-21.844
 20
0.508
 10
-20.32
 20
0.0
 10
-21.844
 20
-0.508
 10
-21.844
 20
0.508
  0
LWPOLYLINE
  5
123
330
1F
100
AcDbEntity
  8
Sheet
100
AcDbPolyline
 90
        4
 70
     1
 43
0.29972
 10
-22.098
 20
-0.508
 10
-23.622
 20
0.0
 10
-22.098
 20
0.508
 10
-22.098
 20
-0.508
  0
LWPOLYLINE
  5
124
330
1F
100
AcDbEntity
  8
Sheet
100
AcDbPolyline
 90
        4
 70
     1
 43
0.29972
 10
-22.098
 20
0.508
 10
-22.098
 20
-0.508
 10
-23.622
 20
0.0
 10
-22.098
 20
0.508
  0
TEXT
  5
125
330
1F
100
AcDbEntity
  8
Sheet
100
AcDbText
 10
-18.542
 20
-0.76453746
 30
0.0
 40
1.524
  1
Slave
100
AcDbText
  0
TEXT
  5
126
330
1F
100
AcDbEntity
  8
Sheet
100
AcDbText
 10
-33.51785015999999
 20
0.50546254
 30
0.0
 40
1.524
  1
USB Typ B
100
AcDbText
  0
LWPOLYLINE
  5
127
330
1F
100
AcDbEntity
  8
Sheet
100
AcDbPolyline
 90
        2
 70
     0
 43
0.29972
 10
-20.32
 20
-2.54
 10
-25.4
 20
-2.54
  0
LWPOLYLINE
  5
128
330
1F
100
AcDbEntity
  8
Sheet
100
AcDbPolyline
 90
        4
 70
     1
 43
0.29972
 10
-20.32
 20
-2.54
 10
-21.844
 20
-3.048
 10
-21.844
 20
-2.032
 10
-20.32
 20
-2.54
  0
LWPOLYLINE
  5
129
330
1F
100
AcDbEntity
  8
Sheet
100
AcDbPolyline
 90
        4
 70
     1
 43
0.29972
 10
-21.844
 20
-2.032
 10
-20.32
 20
-2.54
 10
-21.844
 20
-3.048
 10
-21.844
 20
-2.032
  0
LWPOLYLINE
  5
12A
330
1F
100
AcDbEntity
  8
Sheet
100
AcDbPolyline
 90
        4
 70
     1
 43
0.29972
 10
-22.098
 20
-3.048
 10
-23.622
 20
-2.54
 10
-22.098
 20
-2.032
 10
-22.098
 20
-3.048
  0
LWPOLYLINE
  5
12B
330
1F
100
AcDbEntity
  8
Sheet
100
AcDbPolyline
 90
        4
 70
     1
 43
0.29972
 10
-22.098
 20
-2.032
 10
-22.098
 20
-3.048
 10
-23.622
 20
-2.54
 10
-22.098
 20
-2.032
  0
TEXT
  5
12C
330
1F
100
AcDbEntity
  8
Sheet
100
AcDbText
 10
-18.542
 20
-3.30453746
 30
0.0
 40
1.524
  1
Master
100
AcDbText
  0
TEXT
  5
12D
330
1F
100
AcDbEntity
  8
Sheet
100
AcDbText
 10
-33.72930516
 20
-2.03453746
 30
0.0
 40
1.524
  1
USB Typ A
100
AcDbText
  0
LWPOLYLINE
  5
12E
330
1F
100
AcDbEntity
  8
Sheet
100
AcDbPolyline
 90
        3
 70
     0
 43
0.29972
 10
3.048
 20
-11.43
 10
3.048
 20
-10.16
 10
2.54
 20
-10.16
  0
LWPOLYLINE
  5
12F
330
1F
100
AcDbEntity
  8
Sheet
100
AcDbPolyline
 90
        2
 70
     0
 43
0.29972
 10
-15.24
 20
-10.16
 10
-12.7
 20
-10.16
  0
LWPOLYLINE
  5
130
330
1F
100
AcDbEntity
  8
Sheet
100
AcDbPolyline
 90
        6
 70
     0
 43
0.29972
 10
-13.462
 20
-10.16
 10
-14.478
 20
-9.652
 10
-14.478
 20
-10.668
 10
-13.462
 20
-10.16
 10
-13.462
 20
-9.652
 10
-13.462
 20
-10.668
  0
LWPOLYLINE
  5
131
330
1F
100
AcDbEntity
  8
Sheet
100
AcDbPolyline
 90
        3
 70
     0
 43
0.29972
 10
-14.224
 20
-8.636
 10
-13.716
 20
-7.874
 10
-14.224
 20
-8.128
  0
LWPOLYLINE
  5
132
330
1F
100
AcDbEntity
  8
Sheet
100
AcDbPolyline
 90
        2
 70
     0
 43
0.29972
 10
-13.716
 20
-7.874
 10
-13.716
 20
-8.382
  0
LWPOLYLINE
  5
133
330
1F
100
AcDbEntity
  8
Sheet
100
AcDbPolyline
 90
        3
 70
     0
 43
0.29972
 10
-13.208
 20
-9.144
 10
-12.7
 20
-8.382
 10
-13.208
 20
-8.636
  0
LWPOLYLINE
  5
134
330
1F
100
AcDbEntity
  8
Sheet
100
AcDbPolyline
 90
        2
 70
     0
 43
0.29972
 10
-12.7
 20
-8.382
 10
-12.7
 20
-8.889999999999999
  0
LWPOLYLINE
  5
135
330
1F
100
AcDbEntity
  8
Sheet
100
AcDbPolyline
 90
        2
 70
     0
 43
0.29972
 10
-10.16
 20
-10.16
 10
-7.619999999999999
 20
-10.16
  0
LWPOLYLINE
  5
136
330
1F
100
AcDbEntity
  8
Sheet
100
AcDbPolyline
 90
        6
 70
     0
 43
0.29972
 10
-8.382
 20
-10.16
 10
-9.398
 20
-9.652
 10
-9.398
 20
-10.668
 10
-8.382
 20
-10.16
 10
-8.382
 20
-9.652
 10
-8.382
 20
-10.668
  0
LWPOLYLINE
  5
137
330
1F
100
AcDbEntity
  8
Sheet
100
AcDbPolyline
 90
        3
 70
     0
 43
0.29972
 10
-9.144
 20
-8.636
 10
-8.636
 20
-7.874
 10
-9.144
 20
-8.128
  0
LWPOLYLINE
  5
138
330
1F
100
AcDbEntity
  8
Sheet
100
AcDbPolyline
 90
        2
 70
     0
 43
0.29972
 10
-8.636
 20
-7.874
 10
-8.636
 20
-8.382
  0
LWPOLYLINE
  5
139
330
1F
100
AcDbEntity
  8
Sheet
100
AcDbPolyline
 90
        3
 70
     0
 43
0.29972
 10
-8.128
 20
-9.144
 10
-7.619999999999999
 20
-8.382
 10
-8.128
 20
-8.636
  0
LWPOLYLINE
  5
13A
330
1F
100
AcDbEntity
  8
Sheet
100
AcDbPolyline
 90
        2
 70
     0
 43
0.29972
 10
-7.619999999999999
 20
-8.382
 10
-7.619999999999999
 20
-8.889999999999999
  0
LWPOLYLINE
  5
13B
330
1F
100
AcDbEntity
  8
Sheet
100
AcDbPolyline
 90
        2
 70
     0
 43
0.29972
 10
-5.08
 20
-10.16
 10
-2.54
 20
-10.16
  0
LWPOLYLINE
  5
13C
330
1F
100
AcDbEntity
  8
Sheet
100
AcDbPolyline
 90
        6
 70
     0
 43
0.29972
 10
-3.302
 20
-10.16
 10
-4.318
 20
-9.652
 10
-4.318
 20
-10.668
 10
-3.302
 20
-10.16
 10
-3.302
 20
-9.652
 10
-3.302
 20
-10.668
  0
LWPOLYLINE
  5
13D
330
1F
100
AcDbEntity
  8
Sheet
100
AcDbPolyline
 90
        3
 70
     0
 43
0.29972
 10
-4.064
 20
-8.636
 10
-3.556
 20
-7.874
 10
-4.064
 20
-8.128
  0
LWPOLYLINE
  5
13E
330
1F
100
AcDbEntity
  8
Sheet
100
AcDbPolyline
 90
        2
 70
     0
 43
0.29972
 10
-3.556
 20
-7.874
 10
-3.556
 20
-8.382
  0
LWPOLYLINE
  5
13F
330
1F
100
AcDbEntity
  8
Sheet
100
AcDbPolyline
 90
        3
 70
     0
 43
0.29972
 10
-3.048
 20
-9.144
 10
-2.54
 20
-8.382
 10
-3.048
 20
-8.636
  0
LWPOLYLINE
  5
140
330
1F
100
AcDbEntity
  8
Sheet
100
AcDbPolyline
 90
        2
 70
     0
 43
0.29972
 10
-2.54
 20
-8.382
 10
-2.54
 20
-8.889999999999999
  0
LWPOLYLINE
  5
141
330
1F
100
AcDbEntity
  8
Sheet
100
AcDbPolyline
 90
        2
 70
     0
 43
0.29972
 10
0.0
 20
-10.16
 10
2.54
 20
-10.16
  0
LWPOLYLINE
  5
142
330
1F
100
AcDbEntity
  8
Sheet
100
AcDbPolyline
 90
        6
 70
     0
 43
0.29972
 10
1.778
 20
-10.16
 10
0.762
 20
-9.652
 10
0.762
 20
-10.668
 10
1.778
 20
-10.16
 10
1.778
 20
-9.652
 10
1.778
 20
-10.668
  0
LWPOLYLINE
  5
143
330
1F
100
AcDbEntity
  8
Sheet
100
AcDbPolyline
 90
        3
 70
     0
 43
0.29972
 10
1.016
 20
-8.636
 10
1.524
 20
-7.874
 10
1.016
 20
-8.128
  0
LWPOLYLINE
  5
144
330
1F
100
AcDbEntity
  8
Sheet
100
AcDbPolyline
 90
        2
 70
     0
 43
0.29972
 10
1.524
 20
-7.874
 10
1.524
 20
-8.382
  0
LWPOLYLINE
  5
145
330
1F
100
AcDbEntity
  8
Sheet
100
AcDbPolyline
 90
        3
 70
     0
 43
0.29972
 10
2.032
 20
-9.144
 10
2.54
 20
-8.382
 10
2.032
 20
-8.636
  0
LWPOLYLINE
  5
146
330
1F
100
AcDbEntity
  8
Sheet
100
AcDbPolyline
 90
        2
 70
     0
 43
0.29972
 10
2.54
 20
-8.382
 10
2.54
 20
-8.889999999999999
  0
LWPOLYLINE
  5
147
330
1F
100
AcDbEntity
  8
Sheet
100
AcDbPolyline
 90
        2
 70
     0
 43
0.29972
 10
1.27
 20
20.32
 10
1.27
 20
25.4
  0
TEXT
  5
148
330
1F
100
AcDbEntity
  8
Sheet
100
AcDbText
 10
1.90766446
 20
9.280260839999999
 30
0.0
 40
1.524
  1
PT1000 C
 50
90.0
100
AcDbText
  0
TEXT
  5
149
330
1F
100
AcDbEntity
  8
Sheet
100
AcDbText
 10
0.63766446
 20
23.368
 30
0.0
 40
1.524
  1
9
 50
90.0
100
AcDbText
  0
LWPOLYLINE
  5
14A
330
1F
100
AcDbEntity
  8
Sheet
100
AcDbPolyline
 90
        7
 70
     0
 43
0.29972
 10
-6.603999999999999
 20
7.619999999999999
 10
-5.842
 20
7.619999999999999
 10
-5.842
 20
8.128
 10
-4.318
 20
8.128
 10
-4.318
 20
7.111999999999999
 10
-5.842
 20
7.111999999999999
 10
-5.842
 20
7.619999999999999
  0
LWPOLYLINE
  5
14B
330
1F
100
AcDbEntity
  8
Sheet
100
AcDbPolyline
 90
        3
 70
     0
 43
0.29972
 10
-4.318
 20
7.619999999999999
 10
-3.556
 20
7.619999999999999
 10
-3.556
 20
8.889999999999999
  0
LWPOLYLINE
  5
14C
330
1F
100
AcDbEntity
  8
Sheet
100
AcDbPolyline
 90
        2
 70
     0
 43
0.29972
 10
-1.524
 20
7.619999999999999
 10
-1.524
 20
8.889999999999999
  0
LWPOLYLINE
  5
14D
330
1F
100
AcDbEntity
  8
Sheet
100
AcDbPolyline
 90
        7
 70
     0
 43
0.29972
 10
-1.524
 20
7.619999999999999
 10
-0.762
 20
7.619999999999999
 10
-0.762
 20
8.128
 10
0.762
 20
8.128
 10
0.762
 20
7.111999999999999
 10
-0.762
 20
7.111999999999999
 10
-0.762
 20
7.619999999999999
  0
LWPOLYLINE
  5
14E
330
1F
100
AcDbEntity
  8
Sheet
100
AcDbPolyline
 90
        3
 70
     0
 43
0.29972
 10
0.762
 20
7.619999999999999
 10
1.524
 20
7.619999999999999
 10
1.524
 20
8.889999999999999
  0
ENDSEC
  0
SECTION
  2
OBJECTS
  0
DICTIONARY
  5
C
330
0
100
AcDbDictionary
281
     1
  3
ACAD_DETAILVIEWSTYLE
350
153
  3
ACAD_GROUP
350
D
  3
ACAD_LAYOUT
350
1A
  3
ACAD_MATERIAL
350
43
  3
ACAD_MLEADERSTYLE
350
152
  3
ACAD_MLINESTYLE
350
17
  3
ACAD_PLOTSETTINGS
350
19
  3
ACAD_PLOTSTYLENAME
350
E
  3
ACAD_SCALELIST
350
47
  3
ACAD_SECTIONVIEWSTYLE
350
154
  3
ACAD_TABLESTYLE
350
151
  3
ACAD_VISUALSTYLE
350
2A
  3
AcDbVariableDictionary
350
14F
  0
SUN
  5
69
330
29
100
AcDbSun
 90
        1
290
     0
 63
     7
421
 16777215
 40
1.0
291
     1
 91
  2455826
 92
 54000000
292
     0
 70
     2
 71
   256
280
     1
  0
DICTIONARY
  5
153
102
{ACAD_REACTORS
330
C
102
}
330
C
100
AcDbDictionary
281
     1
  0
DICTIONARY
  5
D
102
{ACAD_REACTORS
330
C
102
}
330
C
100
AcDbDictionary
281
     1
  0
DICTIONARY
  5
1A
102
{ACAD_REACTORS
330
C
102
}
330
C
100
AcDbDictionary
281
     1
  3
Layout1
350
1E
  3
Layout2
350
26
  3
Model
350
22
  0
DICTIONARY
  5
43
102
{ACAD_REACTORS
330
C
102
}
330
C
100
AcDbDictionary
281
     1
  3
ByBlock
350
45
  3
ByLayer
350
44
  3
Global
350
46
  0
DICTIONARY
  5
152
102
{ACAD_REACTORS
330
C
102
}
330
C
100
AcDbDictionary
281
     1
  0
DICTIONARY
  5
17
102
{ACAD_REACTORS
330
C
102
}
330
C
100
AcDbDictionary
281
     1
  3
Standard
350
18
  0
DICTIONARY
  5
19
102
{ACAD_REACTORS
330
C
102
}
330
C
100
AcDbDictionary
281
     1
  0
ACDBDICTIONARYWDFLT
  5
E
102
{ACAD_REACTORS
330
C
102
}
330
C
100
AcDbDictionary
281
     1
  3
Normal
350
F
100
AcDbDictionaryWithDefault
340
F
  0
DICTIONARY
  5
47
102
{ACAD_REACTORS
330
C
102
}
330
C
100
AcDbDictionary
281
     1
  3
A0
350
48
  3
A1
350
49
  3
A2
350
4A
  3
A3
350
4B
  3
A4
350
4C
  3
A5
350
4D
  3
A6
350
4E
  3
A7
350
4F
  3
A8
350
50
  3
A9
350
51
  3
B0
350
52
  3
B1
350
53
  3
B2
350
54
  3
B3
350
55
  3
B4
350
56
  3
B5
350
57
  3
B6
350
58
  3
B7
350
59
  3
B8
350
5A
  3
B9
350
5B
  3
C0
350
5C
  3
C1
350
5D
  3
C2
350
5E
  3
C3
350
5F
  3
C4
350
60
  3
C5
350
61
  3
C6
350
62
  3
C7
350
63
  3
C8
350
64
  3
C9
350
65
  3
D0
350
66
  3
D1
350
67
  3
D2
350
68
  0
DICTIONARY
  5
154
102
{ACAD_REACTORS
330
C
102
}
330
C
100
AcDbDictionary
281
     1
  0
DICTIONARY
  5
151
102
{ACAD_REACTORS
330
C
102
}
330
C
100
AcDbDictionary
281
     1
  0
DICTIONARY
  5
2A
102
{ACAD_REACTORS
330
C
102
}
330
C
100
AcDbDictionary
281
     1
  3
2dWireframe
350
2F
  3
Basic
350
32
  3
Brighten
350
36
  3
ColorChange
350
3A
  3
Conceptual
350
34
  3
Dim
350
35
  3
EdgeColorOff
350
3D
  3
Facepattern
350
39
  3
Flat
350
2B
  3
FlatWithEdges
350
2C
  3
Gouraud
350
2D
  3
GouraudWithEdges
350
2E
  3
Hidden
350
31
  3
JitterOff
350
3B
  3
Linepattern
350
38
  3
OverhangOff
350
3C
  3
Realistic
350
33
  3
Shaded
350
42
  3
Shaded with edges
350
41
  3
Shades of Gray
350
3E
  3
Sketchy
350
3F
  3
Thicken
350
37
  3
Wireframe
350
30
  3
X-Ray
350
40
  0
DICTIONARY
  5
14F
102
{ACAD_REACTORS
330
C
102
}
330
C
100
AcDbDictionary
281
     1
  3
CANNOSCALE
350
150
  0
LAYOUT
  5
1E
102
{ACAD_REACTORS
330
1A
102
}
330
1A
100
AcDbPlotSettings
  1

  2
none_device
  4

  6

 40
0.0
 41
0.0
 42
0.0
 43
0.0
 44
0.0
 45
0.0
 46
0.0
 47
0.0
 48
0.0
 49
0.0
140
0.0
141
0.0
142
1.0
143
1.0
 70
   688
 72
     1
 73
     0
 74
     5
  7

 75
    16
 76
     0
 77
     2
 78
   300
147
1.0
148
0.0
149
0.0
100
AcDbLayout
  1
Layout1
 70
     1
 71
     1
 10
0.0
 20
0.0
 11
420.0
 21
297.0
 12
0.0
 22
0.0
 32
0.0
 14
1.000000000000000E+20
 24
1.000000000000000E+20
 34
1.000000000000000E+20
 15
-1.000000000000000E+20
 25
-1.000000000000000E+20
 35
-1.000000000000000E+20
146
0.0
 13
0.0
 23
0.0
 33
0.0
 16
1.0
 26
0.0
 36
0.0
 17
0.0
 27
1.0
 37
0.0
 76
     0
330
1B
  0
LAYOUT
  5
26
102
{ACAD_REACTORS
330
1A
102
}
330
1A
100
AcDbPlotSettings
  1

  2
none_device
  4

  6

 40
0.0
 41
0.0
 42
0.0
 43
0.0
 44
0.0
 45
0.0
 46
0.0
 47
0.0
 48
0.0
 49
0.0
140
0.0
141
0.0
142
1.0
143
1.0
 70
   688
 72
     1
 73
     0
 74
     5
  7

 75
    16
 76
     0
 77
     2
 78
   300
147
1.0
148
0.0
149
0.0
100
AcDbLayout
  1
Layout2
 70
     1
 71
     2
 10
0.0
 20
0.0
 11
0.0
 21
0.0
 12
0.0
 22
0.0
 32
0.0
 14
0.0
 24
0.0
 34
0.0
 15
0.0
 25
0.0
 35
0.0
146
0.0
 13
0.0
 23
0.0
 33
0.0
 16
1.0
 26
0.0
 36
0.0
 17
0.0
 27
1.0
 37
0.0
 76
     0
330
23
  0
LAYOUT
  5
22
102
{ACAD_REACTORS
330
1A
102
}
330
1A
100
AcDbPlotSettings
  1

  2
none_device
  4
Letter_(8.50_x_11.00_Inches)
  6

 40
6.35
 41
6.35
 42
6.35000508
 43
6.35000508
 44
215.9
 45
279.4
 46
0.0
 47
0.0
 48
0.0
 49
0.0
140
0.0
141
0.0
142
1.0
143
1.0
 70
  1712
 72
     1
 73
     0
 74
     0
  7

 75
     0
 76
     0
 77
     2
 78
   300
147
1.0
148
0.0
149
0.0
100
AcDbLayout
  1
Model
 70
     1
 71
     0
 10
0.0
 20
0.0
 11
508.0
 21
508.0
 12
0.0
 22
0.0
 32
0.0
 14
1.000000000000000E+20
 24
1.000000000000000E+20
 34
1.000000000000000E+20
 15
-1.000000000000000E+20
 25
-1.000000000000000E+20
 35
-1.000000000000000E+20
146
0.0
 13
0.0
 23
0.0
 33
0.0
 16
1.0
 26
0.0
 36
0.0
 17
0.0
 27
1.0
 37
0.0
 76
     0
330
1F
331
29
  0
MATERIAL
  5
45
102
{ACAD_REACTORS
330
43
102
}
330
43
100
AcDbMaterial
  1
ByBlock
 72
     1
 94
      127
  0
MATERIAL
  5
44
102
{ACAD_REACTORS
330
43
102
}
330
43
100
AcDbMaterial
  1
ByLayer
 72
     1
 94
      127
  0
MATERIAL
  5
46
102
{ACAD_REACTORS
330
43
102
}
330
43
100
AcDbMaterial
  1
Global
 72
     1
 94
      127
  0
MLINESTYLE
  5
18
102
{ACAD_REACTORS
330
17
102
}
330
17
100
AcDbMlineStyle
  2
Standard
 70
     0
  3

 62
   256
 51
90.0
 52
90.0
 71
     2
 49
0.5
 62
   256
  6
BYLAYER
 49
-0.5
 62
   256
  6
BYLAYER
  0
ACDBPLACEHOLDER
  5
F
102
{ACAD_REACTORS
330
E
102
}
330
E
  0
SCALE
  5
48
102
{ACAD_REACTORS
330
47
102
}
330
47
100
AcDbScale
 70
     0
300
1:1
140
1.0
141
1.0
290
     1
  0
SCALE
  5
49
102
{ACAD_REACTORS
330
47
102
}
330
47
100
AcDbScale
 70
     0
300
1:2
140
1.0
141
2.0
290
     0
  0
SCALE
  5
4A
102
{ACAD_REACTORS
330
47
102
}
330
47
100
AcDbScale
 70
     0
300
1:4
140
1.0
141
4.0
290
     0
  0
SCALE
  5
4B
102
{ACAD_REACTORS
330
47
102
}
330
47
100
AcDbScale
 70
     0
300
1:5
140
1.0
141
5.0
290
     0
  0
SCALE
  5
4C
102
{ACAD_REACTORS
330
47
102
}
330
47
100
AcDbScale
 70
     0
300
1:8
140
1.0
141
8.0
290
     0
  0
SCALE
  5
4D
102
{ACAD_REACTORS
330
47
102
}
330
47
100
AcDbScale
 70
     0
300
1:10
140
1.0
141
10.0
290
     0
  0
SCALE
  5
4E
102
{ACAD_REACTORS
330
47
102
}
330
47
100
AcDbScale
 70
     0
300
1:16
140
1.0
141
16.0
290
     0
  0
SCALE
  5
4F
102
{ACAD_REACTORS
330
47
102
}
330
47
100
AcDbScale
 70
     0
300
1:20
140
1.0
141
20.0
290
     0
  0
SCALE
  5
50
102
{ACAD_REACTORS
330
47
102
}
330
47
100
AcDbScale
 70
     0
300
1:30
140
1.0
141
30.0
290
     0
  0
SCALE
  5
51
102
{ACAD_REACTORS
330
47
102
}
330
47
100
AcDbScale
 70
     0
300
1:40
140
1.0
141
40.0
290
     0
  0
SCALE
  5
52
102
{ACAD_REACTORS
330
47
102
}
330
47
100
AcDbScale
 70
     0
300
1:50
140
1.0
141
50.0
290
     0
  0
SCALE
  5
53
102
{ACAD_REACTORS
330
47
102
}
330
47
100
AcDbScale
 70
     0
300
1:100
140
1.0
141
100.0
290
     0
  0
SCALE
  5
54
102
{ACAD_REACTORS
330
47
102
}
330
47
100
AcDbScale
 70
     0
300
2:1
140
2.0
141
1.0
290
     0
  0
SCALE
  5
55
102
{ACAD_REACTORS
330
47
102
}
330
47
100
AcDbScale
 70
     0
300
4:1
140
4.0
141
1.0
290
     0
  0
SCALE
  5
56
102
{ACAD_REACTORS
330
47
102
}
330
47
100
AcDbScale
 70
     0
300
8:1
140
8.0
141
1.0
290
     0
  0
SCALE
  5
57
102
{ACAD_REACTORS
330
47
102
}
330
47
100
AcDbScale
 70
     0
300
10:1
140
10.0
141
1.0
290
     0
  0
SCALE
  5
58
102
{ACAD_REACTORS
330
47
102
}
330
47
100
AcDbScale
 70
     0
300
100:1
140
100.0
141
1.0
290
     0
  0
SCALE
  5
59
102
{ACAD_REACTORS
330
47
102
}
330
47
100
AcDbScale
 70
     0
300
1/128" = 1'-0"
140
0.0078125
141
12.0
290
     0
  0
SCALE
  5
5A
102
{ACAD_REACTORS
330
47
102
}
330
47
100
AcDbScale
 70
     0
300
1/64" = 1'-0"
140
0.015625
141
12.0
290
     0
  0
SCALE
  5
5B
102
{ACAD_REACTORS
330
47
102
}
330
47
100
AcDbScale
 70
     0
300
1/32" = 1'-0"
140
0.03125
141
12.0
290
     0
  0
SCALE
  5
5C
102
{ACAD_REACTORS
330
47
102
}
330
47
100
AcDbScale
 70
     0
300
1/16" = 1'-0"
140
0.0625
141
12.0
290
     0
  0
SCALE
  5
5D
102
{ACAD_REACTORS
330
47
102
}
330
47
100
AcDbScale
 70
     0
300
3/32" = 1'-0"
140
0.09375
141
12.0
290
     0
  0
SCALE
  5
5E
102
{ACAD_REACTORS
330
47
102
}
330
47
100
AcDbScale
 70
     0
300
1/8" = 1'-0"
140
0.125
141
12.0
290
     0
  0
SCALE
  5
5F
102
{ACAD_REACTORS
330
47
102
}
330
47
100
AcDbScale
 70
     0
300
3/16" = 1'-0"
140
0.1875
141
12.0
290
     0
  0
SCALE
  5
60
102
{ACAD_REACTORS
330
47
102
}
330
47
100
AcDbScale
 70
     0
300
1/4" = 1'-0"
140
0.25
141
12.0
290
     0
  0
SCALE
  5
61
102
{ACAD_REACTORS
330
47
102
}
330
47
100
AcDbScale
 70
     0
300
3/8" = 1'-0"
140
0.375
141
12.0
290
     0
  0
SCALE
  5
62
102
{ACAD_REACTORS
330
47
102
}
330
47
100
AcDbScale
 70
     0
300
1/2" = 1'-0"
140
0.5
141
12.0
290
     0
  0
SCALE
  5
63
102
{ACAD_REACTORS
330
47
102
}
330
47
100
AcDbScale
 70
     0
300
3/4" = 1'-0"
140
0.75
141
12.0
290
     0
  0
SCALE
  5
64
102
{ACAD_REACTORS
330
47
102
}
330
47
100
AcDbScale
 70
     0
300
1" = 1'-0"
140
1.0
141
12.0
290
     0
  0
SCALE
  5
65
102
{ACAD_REACTORS
330
47
102
}
330
47
100
AcDbScale
 70
     0
300
1-1/2" = 1'-0"
140
1.5
141
12.0
290
     0
  0
SCALE
  5
66
102
{ACAD_REACTORS
330
47
102
}
330
47
100
AcDbScale
 70
     0
300
3" = 1'-0"
140
3.0
141
12.0
290
     0
  0
SCALE
  5
67
102
{ACAD_REACTORS
330
47
102
}
330
47
100
AcDbScale
 70
     0
300
6" = 1'-0"
140
6.0
141
12.0
290
     0
  0
SCALE
  5
68
102
{ACAD_REACTORS
330
47
102
}
330
47
100
AcDbScale
 70
     0
300
1'-0" = 1'-0"
140
12.0
141
12.0
290
     0
  0
VISUALSTYLE
  5
2F
102
{ACAD_REACTORS
330
2A
102
}
330
2A
100
AcDbVisualStyle
  2
2dWireframe
 70
     4
177
     3
291
     0
 70
    58
 90
        0
176
     1
 90
        2
176
     1
 90
        0
176
     1
 90
        0
176
     1
 40
0.6
176
     1
 40
30.0
176
     1
 62
     7
420
 16777215
176
     1
 90
        1
176
     1
 90
        4
176
     1
 62
     7
176
     1
 62
   257
176
     1
 90
        1
176
     1
 90
        1
176
     1
 40
1.0
176
     1
 90
        0
176
     1
 62
   257
176
     1
 40
1.0
176
     1
 90
        1
176
     1
 90
        6
176
     1
 90
        2
176
     1
 62
     7
176
     1
 90
        5
176
     1
 90
        0
176
     1
 90
        0
176
     1
290
     0
176
     1
 90
        1
176
     1
 40
0.0
176
     1
 90
        0
176
     1
290
     1
176
     1
290
     1
176
     1
290
     0
176
     1
290
     0
176
     1
290
     0
176
     1
290
     0
176
     1
290
     0
176
     1
290
     0
176
     1
290
     0
176
     1
 90
       50
176
     1
 40
0.0
176
     1
 40
1.0
176
     1
 90
        0
176
     1
 62
    18
420
        0
176
     1
 90
       50
176
     1
 90
        3
176
     1
 62
     5
420
      255
176
     1
290
     0
176
     1
 90
       50
176
     1
 90
       50
176
     1
 90
       50
176
     1
290
     0
176
     1
 90
       50
176
     1
 62
   256
176
     0
 40
1.0
176
     0
 90
        2
176
     1
  1
strokes_ogs.tif
176
     1
290
     0
176
     1
 40
1.0
176
     1
 40
1.0
176
     1
  0
VISUALSTYLE
  5
32
102
{ACAD_REACTORS
330
2A
102
}
330
2A
100
AcDbVisualStyle
  2
Basic
 70
     7
177
     3
291
     1
 70
    58
 90
        1
176
     1
 90
        0
176
     1
 90
        1
176
     1
 90
        0
176
     1
 40
0.6
176
     1
 40
30.0
176
     1
 62
     7
420
 16777215
176
     1
 90
        0
176
     1
 90
        4
176
     1
 62
     7
176
     1
 62
   257
176
     1
 90
        1
176
     1
 90
        1
176
     1
 40
1.0
176
     1
 90
        8
176
     1
 62
     7
176
     1
 40
1.0
176
     1
 90
        1
176
     1
 90
        6
176
     1
 90
        2
176
     1
 62
     7
176
     1
 90
        5
176
     1
 90
        0
176
     1
 90
        0
176
     1
290
     0
176
     1
 90
        1
176
     1
 40
0.0
176
     1
 90
        0
176
     1
290
     0
176
     1
290
     1
176
     1
290
     1
176
     1
290
     0
176
     1
290
     0
176
     1
290
     0
176
     1
290
     0
176
     1
290
     0
176
     1
290
     0
176
     1
 90
       50
176
     1
 40
0.0
176
     1
 40
1.0
176
     1
 90
        0
176
     1
 62
    18
420
        0
176
     1
 90
       50
176
     1
 90
        3
176
     1
 62
     5
420
      255
176
     1
290
     0
176
     1
 90
       50
176
     1
 90
       50
176
     1
 90
       50
176
     1
290
     0
176
     1
 90
       50
176
     1
 62
   256
176
     0
 40
1.0
176
     0
 90
        2
176
     1
  1
strokes_ogs.tif
176
     1
290
     0
176
     1
 40
1.0
176
     1
 40
1.0
176
     1
  0
VISUALSTYLE
  5
36
102
{ACAD_REACTORS
330
2A
102
}
330
2A
100
AcDbVisualStyle
  2
Brighten
 70
    12
177
     3
291
     1
 70
    58
 90
        2
176
     1
 90
        2
176
     1
 90
        0
176
     1
 90
        0
176
     1
 40
0.6
176
     1
 40
30.0
176
     1
 62
     7
420
 16777215
176
     1
 90
        1
176
     1
 90
        4
176
     1
 62
     7
176
     1
 62
   257
176
     1
 90
        1
176
     1
 90
        1
176
     1
 40
1.0
176
     1
 90
        8
176
     1
 62
     7
176
     1
 40
1.0
176
     1
 90
        1
176
     1
 90
        6
176
     1
 90
        2
176
     1
 62
     7
176
     1
 90
        5
176
     1
 90
        0
176
     1
 90
        0
176
     1
290
     0
176
     1
 90
        1
176
     1
 40
50.0
176
     1
 90
        0
176
     1
290
     0
176
     1
290
     1
176
     1
290
     1
176
     1
290
     0
176
     1
290
     0
176
     1
290
     0
176
     1
290
     0
176
     1
290
     0
176
     1
290
     0
176
     1
 90
       50
176
     1
 40
0.0
176
     1
 40
1.0
176
     1
 90
        0
176
     1
 62
    18
420
        0
176
     1
 90
       50
176
     1
 90
        3
176
     1
 62
     5
420
      255
176
     1
290
     0
176
     1
 90
       50
176
     1
 90
       50
176
     1
 90
       50
176
     1
290
     0
176
     1
 90
       50
176
     1
 62
   256
176
     0
 40
1.0
176
     0
 90
        2
176
     1
  1
strokes_ogs.tif
176
     1
290
     0
176
     1
 40
1.0
176
     1
 40
1.0
176
     1
  0
VISUALSTYLE
  5
3A
102
{ACAD_REACTORS
330
2A
102
}
330
2A
100
AcDbVisualStyle
  2
ColorChange
 70
    16
177
     3
291
     1
 70
    58
 90
        2
176
     1
 90
        2
176
     1
 90
        3
176
     1
 90
        0
176
     1
 40
0.6
176
     1
 40
30.0
176
     1
 62
     8
420
  8421504
176
     1
 90
        1
176
     1
 90
        4
176
     1
 62
     7
176
     1
 62
   257
176
     1
 90
        1
176
     1
 90
        1
176
     1
 40
1.0
176
     1
 90
        8
176
     1
 62
     8
420
  8421504
176
     1
 40
1.0
176
     1
 90
        1
176
     1
 90
        6
176
     1
 90
        2
176
     1
 62
     7
176
     1
 90
        5
176
     1
 90
        0
176
     1
 90
        0
176
     1
290
     0
176
     1
 90
        1
176
     1
 40
0.0
176
     1
 90
        0
176
     1
290
     0
176
     1
290
     1
176
     1
290
     1
176
     1
290
     0
176
     1
290
     0
176
     1
290
     0
176
     1
290
     0
176
     1
290
     0
176
     1
290
     0
176
     1
 90
       50
176
     1
 40
0.0
176
     1
 40
1.0
176
     1
 90
        0
176
     1
 62
    18
420
        0
176
     1
 90
       50
176
     1
 90
        3
176
     1
 62
     5
420
      255
176
     1
290
     0
176
     1
 90
       50
176
     1
 90
       50
176
     1
 90
       50
176
     1
290
     0
176
     1
 90
       50
176
     1
 62
   256
176
     0
 40
1.0
176
     0
 90
        2
176
     1
  1
strokes_ogs.tif
176
     1
290
     0
176
     1
 40
1.0
176
     1
 40
1.0
176
     1
  0
VISUALSTYLE
  5
34
102
{ACAD_REACTORS
330
2A
102
}
330
2A
100
AcDbVisualStyle
  2
Conceptual
 70
     9
177
     3
291
     0
 70
    58
 90
        3
176
     1
 90
        2
176
     1
 90
        0
176
     1
 90
        0
176
     1
 40
0.6
176
     1
 40
30.0
176
     1
 62
     7
420
 16777215
176
     1
 90
        2
176
     1
 90
        2
176
     1
 62
     7
176
     1
 62
   257
176
     1
 90
        1
176
     1
 90
        1
176
     1
 40
179.0
176
     1
 90
        8
176
     1
 62
     7
176
     1
 40
1.0
176
     1
 90
        1
176
     1
 90
        6
176
     1
 90
        2
176
     1
 62
     7
176
     1
 90
        3
176
     1
 90
        0
176
     1
 90
        0
176
     1
290
     0
176
     1
 90
        1
176
     1
 40
0.0
176
     1
 90
        0
176
     1
290
     0
176
     1
290
     1
176
     1
290
     1
176
     1
290
     0
176
     1
290
     0
176
     1
290
     0
176
     1
290
     0
176
     1
290
     0
176
     1
290
     0
176
     1
 90
       50
176
     1
 40
0.0
176
     1
 40
1.0
176
     1
 90
        0
176
     1
 62
    18
420
        0
176
     1
 90
       50
176
     1
 90
        3
176
     1
 62
     5
420
      255
176
     1
290
     0
176
     1
 90
       50
176
     1
 90
       50
176
     1
 90
       50
176
     1
290
     0
176
     1
 90
       50
176
     1
 62
   256
176
     0
 40
1.0
176
     0
 90
        2
176
     1
  1
strokes_ogs.tif
176
     1
290
     0
176
     1
 40
1.0
176
     1
 40
1.0
176
     1
  0
VISUALSTYLE
  5
35
102
{ACAD_REACTORS
330
2A
102
}
330
2A
100
AcDbVisualStyle
  2
Dim
 70
    11
177
     3
291
     1
 70
    58
 90
        2
176
     1
 90
        2
176
     1
 90
        0
176
     1
 90
        0
176
     1
 40
0.6
176
     1
 40
30.0
176
     1
 62
     7
420
 16777215
176
     1
 90
        1
176
     1
 90
        4
176
     1
 62
     7
176
     1
 62
   257
176
     1
 90
        1
176
     1
 90
        1
176
     1
 40
1.0
176
     1
 90
        8
176
     1
 62
     7
176
     1
 40
1.0
176
     1
 90
        1
176
     1
 90
        6
176
     1
 90
        2
176
     1
 62
     7
176
     1
 90
        5
176
     1
 90
        0
176
     1
 90
        0
176
     1
290
     0
176
     1
 90
        1
176
     1
 40
-50.0
176
     1
 90
        0
176
     1
290
     0
176
     1
290
     1
176
     1
290
     1
176
     1
290
     0
176
     1
290
     0
176
     1
290
     0
176
     1
290
     0
176
     1
290
     0
176
     1
290
     0
176
     1
 90
       50
176
     1
 40
0.0
176
     1
 40
1.0
176
     1
 90
        0
176
     1
 62
    18
420
        0
176
     1
 90
       50
176
     1
 90
        3
176
     1
 62
     5
420
      255
176
     1
290
     0
176
     1
 90
       50
176
     1
 90
       50
176
     1
 90
       50
176
     1
290
     0
176
     1
 90
       50
176
     1
 62
   256
176
     0
 40
1.0
176
     0
 90
        2
176
     1
  1
strokes_ogs.tif
176
     1
290
     0
176
     1
 40
1.0
176
     1
 40
1.0
176
     1
  0
VISUALSTYLE
  5
3D
102
{ACAD_REACTORS
330
2A
102
}
330
2A
100
AcDbVisualStyle
  2
EdgeColorOff
 70
    22
177
     3
291
     1
 70
    58
 90
        2
176
     0
 90
        2
176
     0
 90
        0
176
     0
 90
        0
176
     0
 40
0.6
176
     0
 40
30.0
176
     0
 62
     7
420
 16777215
176
     0
 90
        1
176
     0
 90
        4
176
     0
 62
     7
176
     0
 62
   257
176
     0
 90
        1
176
     0
 90
        1
176
     0
 40
1.0
176
     0
 90
        8
176
     2
 62
     7
176
     0
 40
1.0
176
     0
 90
        1
176
     0
 90
        6
176
     0
 90
        2
176
     0
 62
     7
176
     0
 90
        5
176
     0
 90
        0
176
     0
 90
        0
176
     0
290
     0
176
     0
 90
        1
176
     0
 40
0.0
176
     0
 90
        0
176
     0
290
     0
176
     0
290
     1
176
     0
290
     1
176
     0
290
     0
176
     0
290
     0
176
     0
290
     0
176
     0
290
     0
176
     0
290
     0
176
     0
290
     0
176
     0
 90
       50
176
     0
 40
0.0
176
     0
 40
1.0
176
     0
 90
        0
176
     0
 62
    18
420
        0
176
     0
 90
       50
176
     0
 90
        3
176
     0
 62
     5
420
      255
176
     0
290
     0
176
     0
 90
       50
176
     0
 90
       50
176
     0
 90
       50
176
     0
290
     0
176
     0
 90
       50
176
     0
 62
   256
176
     0
 40
1.0
176
     0
 90
        2
176
     0
  1
strokes_ogs.tif
176
     0
290
     0
176
     0
 40
1.0
176
     0
 40
1.0
176
     0
  0
VISUALSTYLE
  5
39
102
{ACAD_REACTORS
330
2A
102
}
330
2A
100
AcDbVisualStyle
  2
Facepattern
 70
    15
177
     3
291
     1
 70
    58
 90
        2
176
     1
 90
        2
176
     1
 90
        0
176
     1
 90
        0
176
     1
 40
0.6
176
     1
 40
30.0
176
     1
 62
     7
420
 16777215
176
     1
 90
        1
176
     1
 90
        4
176
     1
 62
     7
176
     1
 62
   257
176
     1
 90
        1
176
     1
 90
        1
176
     1
 40
1.0
176
     1
 90
        8
176
     1
 62
     7
176
     1
 40
1.0
176
     1
 90
        1
176
     1
 90
        6
176
     1
 90
        2
176
     1
 62
     7
176
     1
 90
        5
176
     1
 90
        0
176
     1
 90
        0
176
     1
290
     0
176
     1
 90
        1
176
     1
 40
0.0
176
     1
 90
        0
176
     1
290
     0
176
     1
290
     1
176
     1
290
     1
176
     1
290
     0
176
     1
290
     0
176
     1
290
     0
176
     1
290
     0
176
     1
290
     0
176
     1
290
     0
176
     1
 90
       50
176
     1
 40
0.0
176
     1
 40
1.0
176
     1
 90
        0
176
     1
 62
    18
420
        0
176
     1
 90
       50
176
     1
 90
        3
176
     1
 62
     5
420
      255
176
     1
290
     0
176
     1
 90
       50
176
     1
 90
       50
176
     1
 90
       50
176
     1
290
     0
176
     1
 90
       50
176
     1
 62
   256
176
     0
 40
1.0
176
     0
 90
        2
176
     1
  1
strokes_ogs.tif
176
     1
290
     0
176
     1
 40
1.0
176
     1
 40
1.0
176
     1
  0
VISUALSTYLE
  5
2B
102
{ACAD_REACTORS
330
2A
102
}
330
2A
100
AcDbVisualStyle
  2
Flat
 70
     0
177
     3
291
     1
 70
    58
 90
        2
176
     1
 90
        1
176
     1
 90
        1
176
     1
 90
        2
176
     1
 40
0.6
176
     1
 40
30.0
176
     1
 62
     7
420
 16777215
176
     1
 90
        0
176
     1
 90
        0
176
     1
 62
     7
176
     1
 62
   257
176
     1
 90
        1
176
     1
 90
        1
176
     1
 40
1.0
176
     1
 90
        8
176
     1
 62
     7
176
     1
 40
1.0
176
     1
 90
        1
176
     1
 90
        6
176
     1
 90
        2
176
     1
 62
     7
176
     1
 90
        5
176
     1
 90
        0
176
     1
 90
        0
176
     1
290
     0
176
     1
 90
       13
176
     1
 40
0.0
176
     1
 90
        0
176
     1
290
     0
176
     1
290
     1
176
     1
290
     1
176
     1
290
     0
176
     1
290
     0
176
     1
290
     0
176
     1
290
     0
176
     1
290
     0
176
     1
290
     0
176
     1
 90
       50
176
     1
 40
0.0
176
     1
 40
1.0
176
     1
 90
        0
176
     1
 62
    18
420
        0
176
     1
 90
       50
176
     1
 90
        3
176
     1
 62
     5
420
      255
176
     1
290
     0
176
     1
 90
       50
176
     1
 90
       50
176
     1
 90
       50
176
     1
290
     0
176
     1
 90
       50
176
     1
 62
   256
176
     0
 40
1.0
176
     0
 90
        2
176
     1
  1
strokes_ogs.tif
176
     1
290
     0
176
     1
 40
1.0
176
     1
 40
1.0
176
     1
  0
VISUALSTYLE
  5
2C
102
{ACAD_REACTORS
330
2A
102
}
330
2A
100
AcDbVisualStyle
  2
FlatWithEdges
 70
     1
177
     3
291
     1
 70
    58
 90
        2
176
     1
 90
        1
176
     1
 90
        1
176
     1
 90
        2
176
     1
 40
0.6
176
     1
 40
30.0
176
     1
 62
     7
420
 16777215
176
     1
 90
        1
176
     1
 90
        0
176
     1
 62
     7
176
     1
 62
   257
176
     1
 90
        1
176
     1
 90
        1
176
     1
 40
1.0
176
     1
 90
        0
176
     1
 62
   257
176
     1
 40
1.0
176
     1
 90
        1
176
     1
 90
        6
176
     1
 90
        2
176
     1
 62
     7
176
     1
 90
        5
176
     1
 90
        0
176
     1
 90
        0
176
     1
290
     0
176
     1
 90
       13
176
     1
 40
0.0
176
     1
 90
        0
176
     1
290
     0
176
     1
290
     1
176
     1
290
     1
176
     1
290
     0
176
     1
290
     0
176
     1
290
     0
176
     1
290
     0
176
     1
290
     0
176
     1
290
     0
176
     1
 90
       50
176
     1
 40
0.0
176
     1
 40
1.0
176
     1
 90
        0
176
     1
 62
    18
420
        0
176
     1
 90
       50
176
     1
 90
        3
176
     1
 62
     5
420
      255
176
     1
290
     0
176
     1
 90
       50
176
     1
 90
       50
176
     1
 90
       50
176
     1
290
     0
176
     1
 90
       50
176
     1
 62
   256
176
     0
 40
1.0
176
     0
 90
        2
176
     1
  1
strokes_ogs.tif
176
     1
290
     0
176
     1
 40
1.0
176
     1
 40
1.0
176
     1
  0
VISUALSTYLE
  5
2D
102
{ACAD_REACTORS
330
2A
102
}
330
2A
100
AcDbVisualStyle
  2
Gouraud
 70
     2
177
     3
291
     1
 70
    58
 90
        2
176
     1
 90
        2
176
     1
 90
        1
176
     1
 90
        2
176
     1
 40
0.6
176
     1
 40
30.0
176
     1
 62
     7
420
 16777215
176
     1
 90
        0
176
     1
 90
        0
176
     1
 62
     7
176
     1
 62
   257
176
     1
 90
        1
176
     1
 90
        1
176
     1
 40
1.0
176
     1
 90
        0
176
     1
 62
     7
176
     1
 40
1.0
176
     1
 90
        1
176
     1
 90
        6
176
     1
 90
        2
176
     1
 62
     7
176
     1
 90
        5
176
     1
 90
        0
176
     1
 90
        0
176
     1
290
     0
176
     1
 90
       13
176
     1
 40
0.0
176
     1
 90
        0
176
     1
290
     0
176
     1
290
     1
176
     1
290
     1
176
     1
290
     0
176
     1
290
     0
176
     1
290
     0
176
     1
290
     0
176
     1
290
     0
176
     1
290
     0
176
     1
 90
       50
176
     1
 40
0.0
176
     1
 40
1.0
176
     1
 90
        0
176
     1
 62
    18
420
        0
176
     1
 90
       50
176
     1
 90
        3
176
     1
 62
     5
420
      255
176
     1
290
     0
176
     1
 90
       50
176
     1
 90
       50
176
     1
 90
       50
176
     1
290
     0
176
     1
 90
       50
176
     1
 62
   256
176
     0
 40
1.0
176
     0
 90
        2
176
     1
  1
strokes_ogs.tif
176
     1
290
     0
176
     1
 40
1.0
176
     1
 40
1.0
176
     1
  0
VISUALSTYLE
  5
2E
102
{ACAD_REACTORS
330
2A
102
}
330
2A
100
AcDbVisualStyle
  2
GouraudWithEdges
 70
     3
177
     3
291
     1
 70
    58
 90
        2
176
     1
 90
        2
176
     1
 90
        1
176
     1
 90
        2
176
     1
 40
0.6
176
     1
 40
30.0
176
     1
 62
     7
420
 16777215
176
     1
 90
        1
176
     1
 90
        0
176
     1
 62
     7
176
     1
 62
   257
176
     1
 90
        1
176
     1
 90
        1
176
     1
 40
1.0
176
     1
 90
        0
176
     1
 62
   257
176
     1
 40
1.0
176
     1
 90
        1
176
     1
 90
        6
176
     1
 90
        2
176
     1
 62
     7
176
     1
 90
        5
176
     1
 90
        0
176
     1
 90
        0
176
     1
290
     0
176
     1
 90
       13
176
     1
 40
0.0
176
     1
 90
        0
176
     1
290
     0
176
     1
290
     1
176
     1
290
     1
176
     1
290
     0
176
     1
290
     0
176
     1
290
     0
176
     1
290
     0
176
     1
290
     0
176
     1
290
     0
176
     1
 90
       50
176
     1
 40
0.0
176
     1
 40
1.0
176
     1
 90
        0
176
     1
 62
    18
420
        0
176
     1
 90
       50
176
     1
 90
        3
176
     1
 62
     5
420
      255
176
     1
290
     0
176
     1
 90
       50
176
     1
 90
       50
176
     1
 90
       50
176
     1
290
     0
176
     1
 90
       50
176
     1
 62
   256
176
     0
 40
1.0
176
     0
 90
        2
176
     1
  1
strokes_ogs.tif
176
     1
290
     0
176
     1
 40
1.0
176
     1
 40
1.0
176
     1
  0
VISUALSTYLE
  5
31
102
{ACAD_REACTORS
330
2A
102
}
330
2A
100
AcDbVisualStyle
  2
Hidden
 70
     6
177
     3
291
     0
 70
    58
 90
        1
176
     1
 90
        2
176
     1
 90
        2
176
     1
 90
        0
176
     1
 40
0.6
176
     1
 40
30.0
176
     1
 62
     7
420
 16777215
176
     1
 90
        2
176
     1
 90
        2
176
     1
 62
     7
176
     1
 62
   257
176
     1
 90
        2
176
     1
 90
        1
176
     1
 40
40.0
176
     1
 90
        0
176
     1
 62
   257
176
     1
 40
1.0
176
     1
 90
        1
176
     1
 90
        6
176
     1
 90
        2
176
     1
 62
     7
176
     1
 90
        3
176
     1
 90
        0
176
     1
 90
        0
176
     1
290
     0
176
     1
 90
        1
176
     1
 40
0.0
176
     1
 90
        0
176
     1
290
     0
176
     1
290
     1
176
     1
290
     1
176
     1
290
     0
176
     1
290
     0
176
     1
290
     0
176
     1
290
     0
176
     1
290
     0
176
     1
290
     0
176
     1
 90
       50
176
     1
 40
0.0
176
     1
 40
1.0
176
     1
 90
        0
176
     1
 62
    18
420
        0
176
     1
 90
       50
176
     1
 90
        3
176
     1
 62
     5
420
      255
176
     1
290
     0
176
     1
 90
       50
176
     1
 90
       50
176
     1
 90
       50
176
     1
290
     0
176
     1
 90
       50
176
     1
 62
   256
176
     0
 40
1.0
176
     0
 90
        2
176
     1
  1
strokes_ogs.tif
176
     1
290
     0
176
     1
 40
1.0
176
     1
 40
1.0
176
     1
  0
VISUALSTYLE
  5
3B
102
{ACAD_REACTORS
330
2A
102
}
330
2A
100
AcDbVisualStyle
  2
JitterOff
 70
    20
177
     3
291
     1
 70
    58
 90
        2
176
     0
 90
        2
176
     0
 90
        0
176
     0
 90
        0
176
     0
 40
0.6
176
     0
 40
30.0
176
     0
 62
     7
420
 16777215
176
     0
 90
        1
176
     0
 90
        4
176
     0
 62
     7
176
     0
 62
   257
176
     0
 90
        1
176
     0
 90
        1
176
     0
 40
1.0
176
     0
 90
       10
176
     2
 62
     7
176
     0
 40
1.0
176
     0
 90
        1
176
     0
 90
        6
176
     0
 90
        2
176
     0
 62
     7
176
     0
 90
        5
176
     0
 90
        0
176
     0
 90
        0
176
     0
290
     0
176
     0
 90
        1
176
     0
 40
0.0
176
     0
 90
        0
176
     0
290
     0
176
     0
290
     1
176
     0
290
     1
176
     0
290
     0
176
     0
290
     0
176
     0
290
     0
176
     0
290
     0
176
     0
290
     0
176
     0
290
     0
176
     0
 90
       50
176
     0
 40
0.0
176
     0
 40
1.0
176
     0
 90
        0
176
     0
 62
    18
420
        0
176
     0
 90
       50
176
     0
 90
        3
176
     0
 62
     5
420
      255
176
     0
290
     0
176
     0
 90
       50
176
     0
 90
       50
176
     0
 90
       50
176
     0
290
     0
176
     0
 90
       50
176
     0
 62
   256
176
     0
 40
1.0
176
     0
 90
        2
176
     0
  1
strokes_ogs.tif
176
     0
290
     0
176
     0
 40
1.0
176
     0
 40
1.0
176
     0
  0
VISUALSTYLE
  5
38
102
{ACAD_REACTORS
330
2A
102
}
330
2A
100
AcDbVisualStyle
  2
Linepattern
 70
    14
177
     3
291
     1
 70
    58
 90
        2
176
     1
 90
        2
176
     1
 90
        0
176
     1
 90
        0
176
     1
 40
0.6
176
     1
 40
30.0
176
     1
 62
     7
420
 16777215
176
     1
 90
        1
176
     1
 90
        4
176
     1
 62
     7
176
     1
 62
   257
176
     1
 90
        7
176
     1
 90
        7
176
     1
 40
1.0
176
     1
 90
        8
176
     1
 62
     7
176
     1
 40
1.0
176
     1
 90
        1
176
     1
 90
        6
176
     1
 90
        2
176
     1
 62
     7
176
     1
 90
        5
176
     1
 90
        0
176
     1
 90
        0
176
     1
290
     0
176
     1
 90
        1
176
     1
 40
0.0
176
     1
 90
        0
176
     1
290
     0
176
     1
290
     1
176
     1
290
     1
176
     1
290
     0
176
     1
290
     0
176
     1
290
     0
176
     1
290
     0
176
     1
290
     0
176
     1
290
     0
176
     1
 90
       50
176
     1
 40
0.0
176
     1
 40
1.0
176
     1
 90
        0
176
     1
 62
    18
420
        0
176
     1
 90
       50
176
     1
 90
        3
176
     1
 62
     5
420
      255
176
     1
290
     0
176
     1
 90
       50
176
     1
 90
       50
176
     1
 90
       50
176
     1
290
     0
176
     1
 90
       50
176
     1
 62
   256
176
     0
 40
1.0
176
     0
 90
        2
176
     1
  1
strokes_ogs.tif
176
     1
290
     0
176
     1
 40
1.0
176
     1
 40
1.0
176
     1
  0
VISUALSTYLE
  5
3C
102
{ACAD_REACTORS
330
2A
102
}
330
2A
100
AcDbVisualStyle
  2
OverhangOff
 70
    21
177
     3
291
     1
 70
    58
 90
        2
176
     0
 90
        2
176
     0
 90
        0
176
     0
 90
        0
176
     0
 40
0.6
176
     0
 40
30.0
176
     0
 62
     7
420
 16777215
176
     0
 90
        1
176
     0
 90
        4
176
     0
 62
     7
176
     0
 62
   257
176
     0
 90
        1
176
     0
 90
        1
176
     0
 40
1.0
176
     0
 90
        9
176
     2
 62
     7
176
     0
 40
1.0
176
     0
 90
        1
176
     0
 90
        6
176
     0
 90
        2
176
     0
 62
     7
176
     0
 90
        5
176
     0
 90
        0
176
     0
 90
        0
176
     0
290
     0
176
     0
 90
        1
176
     0
 40
0.0
176
     0
 90
        0
176
     0
290
     0
176
     0
290
     1
176
     0
290
     1
176
     0
290
     0
176
     0
290
     0
176
     0
290
     0
176
     0
290
     0
176
     0
290
     0
176
     0
290
     0
176
     0
 90
       50
176
     0
 40
0.0
176
     0
 40
1.0
176
     0
 90
        0
176
     0
 62
    18
420
        0
176
     0
 90
       50
176
     0
 90
        3
176
     0
 62
     5
420
      255
176
     0
290
     0
176
     0
 90
       50
176
     0
 90
       50
176
     0
 90
       50
176
     0
290
     0
176
     0
 90
       50
176
     0
 62
   256
176
     0
 40
1.0
176
     0
 90
        2
176
     0
  1
strokes_ogs.tif
176
     0
290
     0
176
     0
 40
1.0
176
     0
 40
1.0
176
     0
  0
VISUALSTYLE
  5
33
102
{ACAD_REACTORS
330
2A
102
}
330
2A
100
AcDbVisualStyle
  2
Realistic
 70
     8
177
     3
291
     0
 70
    58
 90
        2
176
     1
 90
        3
176
     1
 90
        0
176
     1
 90
        2
176
     1
 40
0.6
176
     1
 40
30.0
176
     1
 62
     7
420
 16777215
176
     1
 90
        0
176
     1
 90
        0
176
     1
 62
     7
176
     1
 62
   257
176
     1
 90
        1
176
     1
 90
        1
176
     1
 40
1.0
176
     1
 90
        8
176
     1
 62
   257
176
     1
 40
1.0
176
     1
 90
        1
176
     1
 90
        6
176
     1
 90
        2
176
     1
 62
     7
176
     1
 90
        3
176
     1
 90
        0
176
     1
 90
        0
176
     1
290
     0
176
     1
 90
       13
176
     1
 40
0.0
176
     1
 90
        0
176
     1
290
     0
176
     1
290
     1
176
     1
290
     1
176
     1
290
     0
176
     1
290
     0
176
     1
290
     0
176
     1
290
     0
176
     1
290
     0
176
     1
290
     0
176
     1
 90
       50
176
     1
 40
0.0
176
     1
 40
1.0
176
     1
 90
        0
176
     1
 62
    18
420
        0
176
     1
 90
       50
176
     1
 90
        3
176
     1
 62
     5
420
      255
176
     1
290
     0
176
     1
 90
       50
176
     1
 90
       50
176
     1
 90
       50
176
     1
290
     0
176
     1
 90
       50
176
     1
 62
   256
176
     0
 40
1.0
176
     0
 90
        2
176
     1
  1
strokes_ogs.tif
176
     1
290
     0
176
     1
 40
1.0
176
     1
 40
1.0
176
     1
  0
VISUALSTYLE
  5
42
102
{ACAD_REACTORS
330
2A
102
}
330
2A
100
AcDbVisualStyle
  2
Shaded
 70
    27
177
     3
291
     0
 70
    58
 90
        2
176
     1
 90
        2
176
     1
 90
        1
176
     1
 90
        2
176
     1
 40
0.6
176
     1
 40
30.0
176
     1
 62
     7
420
 16777215
176
     1
 90
        0
176
     1
 90
        4
176
     1
 62
     7
176
     1
 62
   257
176
     1
 90
        1
176
     1
 90
        1
176
     1
 40
1.0
176
     1
 90
        8
176
     1
 62
   257
176
     1
 40
1.0
176
     1
 90
        1
176
     1
 90
        6
176
     1
 90
        2
176
     1
 62
     8
420
  7895160
176
     1
 90
        3
176
     1
 90
        0
176
     1
 90
        0
176
     1
290
     0
176
     1
 90
        5
176
     1
 40
0.0
176
     1
 90
        0
176
     1
290
     0
176
     1
290
     1
176
     1
290
     1
176
     1
290
     0
176
     1
290
     0
176
     1
290
     0
176
     1
290
     0
176
     1
290
     0
176
     1
290
     0
176
     1
 90
       50
176
     1
 40
0.0
176
     1
 40
1.0
176
     1
 90
        0
176
     1
 62
    18
420
        0
176
     1
 90
       50
176
     1
 90
        3
176
     1
 62
     5
420
      255
176
     1
290
     0
176
     1
 90
       50
176
     1
 90
       50
176
     1
 90
       50
176
     1
290
     0
176
     1
 90
       50
176
     1
 62
   256
176
     0
 40
1.0
176
     0
 90
        2
176
     1
  1
strokes_ogs.tif
176
     1
290
     0
176
     1
 40
1.0
176
     1
 40
1.0
176
     1
  0
VISUALSTYLE
  5
41
102
{ACAD_REACTORS
330
2A
102
}
330
2A
100
AcDbVisualStyle
  2
Shaded with edges
 70
    26
177
     3
291
     0
 70
    58
 90
        2
176
     1
 90
        2
176
     1
 90
        1
176
     1
 90
        2
176
     1
 40
0.6
176
     1
 40
30.0
176
     1
 62
     7
420
 16777215
176
     1
 90
        1
176
     1
 90
       10
176
     1
 62
     7
176
     1
 62
   257
176
     1
 90
        2
176
     1
 90
        1
176
     1
 40
1.0
176
     1
 90
        8
176
     1
 62
   257
176
     1
 40
1.0
176
     1
 90
        1
176
     1
 90
        6
176
     1
 90
        2
176
     1
 62
     7
176
     1
 90
        3
176
     1
 90
        0
176
     1
 90
        0
176
     1
290
     0
176
     1
 90
        5
176
     1
 40
0.0
176
     1
 90
        0
176
     1
290
     0
176
     1
290
     1
176
     1
290
     1
176
     1
290
     0
176
     1
290
     0
176
     1
290
     0
176
     1
290
     0
176
     1
290
     0
176
     1
290
     0
176
     1
 90
       50
176
     1
 40
0.0
176
     1
 40
1.0
176
     1
 90
        0
176
     1
 62
    18
420
        0
176
     1
 90
       50
176
     1
 90
        3
176
     1
 62
     5
420
      255
176
     1
290
     0
176
     1
 90
       50
176
     1
 90
       50
176
     1
 90
       50
176
     1
290
     0
176
     1
 90
       50
176
     1
 62
   256
176
     0
 40
1.0
176
     0
 90
        2
176
     1
  1
strokes_ogs.tif
176
     1
290
     0
176
     1
 40
1.0
176
     1
 40
1.0
176
     1
  0
VISUALSTYLE
  5
3E
102
{ACAD_REACTORS
330
2A
102
}
330
2A
100
AcDbVisualStyle
  2
Shades of Gray
 70
    23
177
     3
291
     0
 70
    58
 90
        2
176
     1
 90
        2
176
     1
 90
        3
176
     1
 90
        0
176
     1
 40
0.6
176
     1
 40
30.0
176
     1
 62
     7
420
 16777215
176
     1
 90
        2
176
     1
 90
        2
176
     1
 62
     7
176
     1
 62
     7
176
     1
 90
        1
176
     1
 90
        1
176
     1
 40
40.0
176
     1
 90
        8
176
     1
 62
     7
176
     1
 40
1.0
176
     1
 90
        1
176
     1
 90
        6
176
     1
 90
        2
176
     1
 62
     7
176
     1
 90
        3
176
     1
 90
        0
176
     1
 90
        0
176
     1
290
     0
176
     1
 90
        1
176
     1
 40
0.0
176
     1
 90
        0
176
     1
290
     0
176
     1
290
     1
176
     1
290
     1
176
     1
290
     0
176
     1
290
     0
176
     1
290
     0
176
     1
290
     0
176
     1
290
     0
176
     1
290
     0
176
     1
 90
       50
176
     1
 40
0.0
176
     1
 40
1.0
176
     1
 90
        0
176
     1
 62
    18
420
        0
176
     1
 90
       50
176
     1
 90
        3
176
     1
 62
     5
420
      255
176
     1
290
     0
176
     1
 90
       50
176
     1
 90
       50
176
     1
 90
       50
176
     1
290
     0
176
     1
 90
       50
176
     1
 62
   256
176
     0
 40
1.0
176
     0
 90
        2
176
     1
  1
strokes_ogs.tif
176
     1
290
     0
176
     1
 40
1.0
176
     1
 40
1.0
176
     1
  0
VISUALSTYLE
  5
3F
102
{ACAD_REACTORS
330
2A
102
}
330
2A
100
AcDbVisualStyle
  2
Sketchy
 70
    24
177
     3
291
     0
 70
    58
 90
        1
176
     1
 90
        2
176
     1
 90
        2
176
     1
 90
        0
176
     1
 40
0.6
176
     1
 40
30.0
176
     1
 62
     7
420
 16777215
176
     1
 90
        2
176
     1
 90
        2
176
     1
 62
     7
176
     1
 62
     7
176
     1
 90
        1
176
     1
 90
        1
176
     1
 40
40.0
176
     1
 90
       11
176
     1
 62
     7
176
     1
 40
1.0
176
     1
 90
        1
176
     1
 90
        6
176
     1
 90
        2
176
     1
 62
     7
176
     1
 90
        6
176
     1
 90
        0
176
     1
 90
        0
176
     1
290
     0
176
     1
 90
        1
176
     1
 40
0.0
176
     1
 90
        0
176
     1
290
     0
176
     1
290
     1
176
     1
290
     1
176
     1
290
     0
176
     1
290
     0
176
     1
290
     0
176
     1
290
     0
176
     1
290
     0
176
     1
290
     0
176
     1
 90
       50
176
     1
 40
0.0
176
     1
 40
1.0
176
     1
 90
        0
176
     1
 62
    18
420
        0
176
     1
 90
       50
176
     1
 90
        3
176
     1
 62
     5
420
      255
176
     1
290
     0
176
     1
 90
       50
176
     1
 90
       50
176
     1
 90
       50
176
     1
290
     0
176
     1
 90
       50
176
     1
 62
   256
176
     0
 40
1.0
176
     0
 90
        2
176
     1
  1
strokes_ogs.tif
176
     1
290
     0
176
     1
 40
1.0
176
     1
 40
1.0
176
     1
  0
VISUALSTYLE
  5
37
102
{ACAD_REACTORS
330
2A
102
}
330
2A
100
AcDbVisualStyle
  2
Thicken
 70
    13
177
     3
291
     1
 70
    58
 90
        2
176
     1
 90
        2
176
     1
 90
        0
176
     1
 90
        0
176
     1
 40
0.6
176
     1
 40
30.0
176
     1
 62
     7
420
 16777215
176
     1
 90
        1
176
     1
 90
        4
176
     1
 62
     7
176
     1
 62
   257
176
     1
 90
        1
176
     1
 90
        1
176
     1
 40
1.0
176
     1
 90
       12
176
     1
 62
     7
176
     1
 40
1.0
176
     1
 90
        1
176
     1
 90
        6
176
     1
 90
        2
176
     1
 62
     7
176
     1
 90
        5
176
     1
 90
        0
176
     1
 90
        0
176
     1
290
     0
176
     1
 90
        1
176
     1
 40
0.0
176
     1
 90
        0
176
     1
290
     0
176
     1
290
     1
176
     1
290
     1
176
     1
290
     0
176
     1
290
     0
176
     1
290
     0
176
     1
290
     0
176
     1
290
     0
176
     1
290
     0
176
     1
 90
       50
176
     1
 40
0.0
176
     1
 40
1.0
176
     1
 90
        0
176
     1
 62
    18
420
        0
176
     1
 90
       50
176
     1
 90
        3
176
     1
 62
     5
420
      255
176
     1
290
     0
176
     1
 90
       50
176
     1
 90
       50
176
     1
 90
       50
176
     1
290
     0
176
     1
 90
       50
176
     1
 62
   256
176
     0
 40
1.0
176
     0
 90
        2
176
     1
  1
strokes_ogs.tif
176
     1
290
     0
176
     1
 40
1.0
176
     1
 40
1.0
176
     1
  0
VISUALSTYLE
  5
30
102
{ACAD_REACTORS
330
2A
102
}
330
2A
100
AcDbVisualStyle
  2
Wireframe
 70
     5
177
     3
291
     0
 70
    58
 90
        0
176
     1
 90
        2
176
     1
 90
        0
176
     1
 90
        0
176
     1
 40
0.6
176
     1
 40
30.0
176
     1
 62
     7
420
 16777215
176
     1
 90
        1
176
     1
 90
        4
176
     1
 62
     7
176
     1
 62
   257
176
     1
 90
        1
176
     1
 90
        1
176
     1
 40
1.0
176
     1
 90
        0
176
     1
 62
   257
176
     1
 40
1.0
176
     1
 90
        1
176
     1
 90
        6
176
     1
 90
        2
176
     1
 62
     7
176
     1
 90
        3
176
     1
 90
        0
176
     1
 90
        0
176
     1
290
     0
176
     1
 90
        1
176
     1
 40
0.0
176
     1
 90
        0
176
     1
290
     0
176
     1
290
     1
176
     1
290
     1
176
     1
290
     0
176
     1
290
     0
176
     1
290
     0
176
     1
290
     0
176
     1
290
     0
176
     1
290
     0
176
     1
 90
       50
176
     1
 40
0.0
176
     1
 40
1.0
176
     1
 90
        0
176
     1
 62
    18
420
        0
176
     1
 90
       50
176
     1
 90
        3
176
     1
 62
     5
420
      255
176
     1
290
     0
176
     1
 90
       50
176
     1
 90
       50
176
     1
 90
       50
176
     1
290
     0
176
     1
 90
       50
176
     1
 62
   256
176
     0
 40
1.0
176
     0
 90
        2
176
     1
  1
strokes_ogs.tif
176
     1
290
     0
176
     1
 40
1.0
176
     1
 40
1.0
176
     1
  0
VISUALSTYLE
  5
40
102
{ACAD_REACTORS
330
2A
102
}
330
2A
100
AcDbVisualStyle
  2
X-Ray
 70
    25
177
     3
291
     0
 70
    58
 90
        2
176
     1
 90
        2
176
     1
 90
        1
176
     1
 90
        1
176
     1
 40
0.5
176
     1
 40
30.0
176
     1
 62
     7
420
 16777215
176
     1
 90
        1
176
     1
 90
        0
176
     1
 62
     7
176
     1
 62
   257
176
     1
 90
        1
176
     1
 90
        1
176
     1
 40
1.0
176
     1
 90
        8
176
     1
 62
     7
176
     1
 40
1.0
176
     1
 90
        1
176
     1
 90
        6
176
     1
 90
        2
176
     1
 62
     7
176
     1
 90
        3
176
     1
 90
        0
176
     1
 90
        0
176
     1
290
     0
176
     1
 90
       13
176
     1
 40
0.0
176
     1
 90
        0
176
     1
290
     0
176
     1
290
     1
176
     1
290
     1
176
     1
290
     0
176
     1
290
     0
176
     1
290
     0
176
     1
290
     0
176
     1
290
     0
176
     1
290
     0
176
     1
 90
       50
176
     1
 40
0.0
176
     1
 40
1.0
176
     1
 90
        0
176
     1
 62
    18
420
        0
176
     1
 90
       50
176
     1
 90
        3
176
     1
 62
     5
420
      255
176
     1
290
     0
176
     1
 90
       50
176
     1
 90
       50
176
     1
 90
       50
176
     1
290
     0
176
     1
 90
       50
176
     1
 62
   256
176
     0
 40
1.0
176
     0
 90
        2
176
     1
  1
strokes_ogs.tif
176
     1
290
     0
176
     1
 40
1.0
176
     1
 40
1.0
176
     1
  0
DICTIONARYVAR
  5
150
102
{ACAD_REACTORS
330
14F
102
}
330
14F
100
DictionaryVariables
280
     0
  1
1:1
  0
ENDSEC
  0
EOF
